My World

Metallica

Composição de: Bob Rock / James Hetfield / Kirk Hammett / Lars Ulrich
tom: C#
Dropped D and tuned down a step (Dropped C)

Riff 1 
d------------------------------------------------------------
A------------------------------------------------------------
F------------------------------------------------------------
C----------------------0~-----------------------0~-----------
G--0m-0m--0m-0m-0m-0m--0~---0m-0m--0m-0m-0m-0m--0~-----------
C--0m-0m--0m-0m-0m-0m--0~---0m-0m--0m-0m-0m-0m--0~-----------

Riff 2A (Guitar 1)
d------------------------------------------------------------
A------------------------------------------------------------
F------------------------------------------------------------
C------------------------------------------------------------
G---------------------------------------0-3-5^---------------
C--3m-0m-0m-5m-0m-0m-6m-0m-0m-3m-0m-0m-----------------------

Riff 2B (Guitar 2)
d------------------------------------------------------------
A------------------------------------------------------------
F------------------------------------------------------------
C--0---3---5---0--------------0---3---5---0------------------
G--0---3---5---0---0-3-5^-----0---3---5---0---0-3-5^---------
C--0---3---5---0--------------0---3---5---0------------------

Vese
d------------------------------------------------------------
A------------------------------------------------------------
F------------------------------------------------------------
C----------------------------------------------0--3--5--3--0-
G--------------------------------------0-3-5^--0--3--5--3--0-
C-3m-0m-0m-5m-0m-0m-6m-0m-0m-3m-0m-0m----------0--3--5--3--0-

Fill 1
d------------------------------------------------------------
A--3~---------6~---------------------------------------------
F--2~---------5~---------------------------------------------
C--0~---------3~---------------------------------------------
G--0~---------3~---------------------------------------------
C--0~---------3~---------------------------------------------

Chorus
d------------------------------------------------------------
A------------------------------------------------------------
F------------------------------------------------------------
C--0--3--5~------0--3--5~-------0--3--5~------6--3--0--------
G--0--3--5~------0--3--5~-------0--3--5~------6--3--0--------
C--0--3--5~------0--3--5~-------0--3--5~------6--3--0--------

Post-Chorus
d------------------------------------------------------------
A------------------------------------------------------------
F------------------------------------------------------------
C--3mp0--0m-0m--3mp0--5m--6m---3mp0--0m-0m--3mp0--5m--6m-----
G--3mp0--0m-0m--3mp0--5m--6m---3mp0--0m-0m--3mp0--5m--6m-----
C--3mp0--0m-0m--3mp0--5m--6m---3mp0--0m-0m--3mp0--5m--6m-----

Bridge 1 (palm muted)          end on
d---------------------------|--------------------------------
A---------------------------|--------------------------------
F---------------------------|--------------------------------
C---------------------------|--------------------------------
G--0-0-0-12-0--0-0-0-12p10--|--0-0-0-12p10--0-0-0-12p10------
C--0-0-0-12-0--0-0-0-12p10--|--0-0-0-12p10--0-0-0-12p10------

Bridge 2A (Guitar 1)
d------------------------------------------------------------
A------------------------------------------------------------
F------------------------------------------------------------
C---------------------0~-------------------------0~----------
G--0m-0m-0m-5m-0m--0m-0~------0m-0m-0m-5m-0m--0m-0~----------
C--0m-0m-0m-5m-0m--0m-0~------0m-0m-0m-5m-0m--0m-0~----------

Bridge 2B (Guitar 2)
d------------------------------------------------------------
A------------------------------------------------------------
F------------------------------------------------------------
C---------------------0--------------------------------------
G--0m-0m-0m-5m-0m--0m-0--------------------------------------
C--0m-0m-0m-5m-0m--0m-0---3p0-5p0-6p0------------------------

Bridge 3
d------------------------------------------------------------
A------------------------------------------------------------
F------------------------------------------------------------
C--0-0-0-0-0-0-0-0--3-3-0-3-5-6---0--------------------------
G--0-0-0-0-0-0-0-0--3-3-0-3-5-6---0--------------------------
C--0-0-0-0-0-0-0-0--3-3-0-3-5-6---0--------------------------

Fill 2
d------------------------------------------------------------
A------------------------------------------------------------
F------------------------------------------------------------
C--6--3--0---------------------------------------------------
G--6--3--0---------------------------------------------------
C--6--3--0---------------------------------------------------

Outro A (Guitar 1)
d------------------------------------------------------------
A------------------------------------------------------------
F------------------------------------------------------------
C--0-0-------0-0------0-0-------0-0--------0-0---0-0---------
G--0-0-------0-0------0-0-------0-0--------0-0---0-0---------
C--0-0-------0-0------0-0-------0-0--------0-0---0-0---------

Outro B (Guitar 2)                      end on
d--------------------------------------|---------------------
A--------------------------------------|---------------------
F--------------------------------------|---------------------
C--0-3-5-6-5-3-5-6---0-3-5-6-5-3-5-6---|--6---3---0----------
G--0-3-5-6-5-3-5-6---0-3-5-6-5-3-5-6---|--6---3---0----------
C--0-3-5-6-5-3-5-6---0-3-5-6-5-3-5-6---|--6---3---0----------


Riff 1
Riff 2A, 2B
Riff 2B
Riff 2A
Verse
Fill 1
Verse
Chorus
Post-Chorus
Riff 2A
Riff 2A, 2B
Verse
Fill 1
Verse
Chorus
Post-Chorus
Bridge 1
Bridge 2A, 2B
Bridge 3
Post-Chorus (end on Fill 3)
Post-Chorus
Outro A
Outro A, B
Página 1 / 1

Letras e título
Acordes e artista

resetar configurações
OK