Nothing Else Matters

Metallica

Composição: James Hetfield / Lars Ulrich
(Introdução Somente guitarras)

Primeira parte:

G|---------------------------------------------------
D|---------------------------------------------------
A|---7-5----------7-5----------7-5----------2---7----
E|-0-----8\-3-2-0-----8\-3-2-0-----8\-3-2-3---0------

G|---------------------------------------------------
D|---------------------------------------------------
A|---------7\---------------------------------------- (2x)
E|-0-0-0-0----3-2------------------------------------

G|---------------------------------------------------
D|---------------------------------------------------
A|---7-5----------7-5----------7-5----------2---7-3-0
E|-0-----8\-3-2-0-----8\-3-2-0-----8\-3-2-3---0------

So close no matter how far
Couldn't be much more from the heart
Forever trusting who we are
And nothing else matters

Never opened myself this way
Life is ours, we live it our way
All these words I don't just say
And nothing else matters

Trust I seek and I find in you
Every day for us something new
Open mind for a different view
And nothing else matters

Refrão:

G|---------------------------------------------------
D|---------------------------------------------------
A|-5-5-5-5-5-5-3-0-5-5-5-5-5-5-3-0-------------------
E|---------------------------------------------------

G|---------------------------------------------------
D|---------------------------------------------------
A|-5-5-5---7-----------------------------------------
E|-------0---0-3-2-----------------------------------

(...)
Never cared for what they do
Never cared for what they know
But I know

Repetição da primeira parte:

G|---------------------------------------------------
D|---------------------------------------------------
A|---7-5----------7-5-/10\-------7-5----------2------
E|-0-----8\-3-2-0----------3-2-0-----8\-3-2-3---0----

G|---------------------------------------------------
D|---------------------------------------------------
A|-7-3-0---------------------------------------------
E|---------------------------------------------------

(...)
So close no matter how far
Couldn't be much more from the heart
Forever trusting who we are
And nothing else matters

Repetição do refrão:

G|---------------------------------------------------
D|---------------------------------------------------
A|-5-5-5-5-5-5-3-0-5-5-5-5-5-5-3-0-------------------
E|---------------------------------------------------

G|---------------------------------------------------
D|---------------------------------------------------
A|-5-5-5---7-7-7-7-7---------------------------------
E|-------0-----------3-2-----------------------------

(...)
Never cared for what they do
Never cared for what they know
But I know

Primeiro solo:

G|---------------------------------------------------
D|---------------------------------------------------
A|---7-7---7-7---7-7---7----0-0-0--------------------
E|-0-----0-----0-----0---7\--------------------------

G|-------------------------------------9-------------
D|---------------------------------------------------
A|-0h2-2/3-3-3-2h3-3/5-5-5-5/7-7---7-----------------
E|-------------------------------0---0---0-3-2-------

G|---------------------------------------------------
D|-----------------------------7-7-------------------
A|---7-7---7-7---7-7---------7-----------------------
E|-0-----0-----0-----0-12\-5-------------------------

G|---------------------------------------------------
D|---------------------7---5-------------------------
A|-0h2-2/3-3-3-2h3-3/5---5---7---7-7-----------------
E|-----------------------------0-----0-3-2-----------

Repetição da primeira parte:

G|---------------------------------------------------
D|---------------------------------------------------
A|---7-5----------7-5----------7-5----------2--------
E|-0-----8\-3-2-0-----8\-3-2-0-----8\-3-2-3---0-0-3-2

G|---------------------------------------------------
D|---------------------------------------------------
A|---7-5----------7-5----------7-5----------2---7-3-0
E|-0-----8\-3-2-0-----8\-3-2-0-----8\-3-2-3---0------

Repetição do refrão:

G|---------------------------------------------------
D|---------------------------------------------------
A|-5-5-5-5-5-5-3-0-5-5-5-5-5-5-3-0------------------- (2x)
E|---------------------------------------------------

G|---------------------------------------------------
D|---------------------------------------------------
A|-5-5-5-5/7-7-7-7-7-7-7-7-7-7-7-7-7-----------------
E|---------------------------------------------------

Segundo solo:

G|---------------------------------------------------
D|---------------------------------------------------
A|-----7-7-5-5-3---------7-7-5-5-3---------7-7-5-5-3-
E|-0-0-----------3-2-0-0-----------3-2-0-0-----------

G|---------------------------------------------------
D|---------------------------------------------------
A|---2-2---------------------------------------------
E|-3-----0-------------------------------------------
Página 1 / 1

Letras e título
Acordes e artista

resetar configurações
variar acorde