Cifra Club

Aprenda

Now That We're Dead

Metallica

Cifra: Principal (violão e guitarra)
tom: G
                            



[Intro]
E|---------------------------|
B|----8---8---8~-------------|
G|----9---9---9~-------------|
D|----9---9---9~-------------|
A|----7---7---7~-------------|
E|---------------------------|
       .   .

RIFF 1:
E|--------------------------|--------------------------|-------------------------|
B|--------------------------|--------------------------|-------------------------|
G|--------------------------|--------------------------|-------------------------|
D|--------------------------|--------------------------|-------------------------|
A|--------------------------|--------------------------|-------------------------|
E|--0--0--0--0--0--0--0--0--|--0--0--0--0--0--0--0--0--|--0--0--0--0--0--0--0--0-|
     .  .  .  .  .  .  .  .     .  .  .  .  .  .  .  .     .  .  .  .  .  .  .  .

RIFF 2:
E|--------------------------|--------------------------|
B|--------------------------|--------------------------|
G|--------------------------|--------------------------|
D|--------------------------|--------------------------|
A|-----------5--5-----7-----|--8-----------2-----------|
E|--0--0--0--3--3--0--5--0--|--6--0--0--0--0--0--0--0--|
     .  .  .        .     .        .  .  .     .  .  .

E|--------------------------|--------------------------|
B|--------------------------|--------------------------|
G|--------------------------|--------------------------| PLAY RIFF 2 TWICE
D|--------------------------|--------------------------|
A|-----------5--5-----4-----|--5-----------------------|
E|--0--0--0--3--3--0--2--0--|--3--0--0--0--0--0--0--0--|
     .  .  .        .     .        .  .  .  .  .  .  .

RIFF 3:
E|--------------------------|--------------------------|
B|--------------------------|--------------------------|
G|--------------------------|--------------------------|
D|--------------------------|--------------------------|
A|-----------5--5-----7-----|--8-----7--7-----5-----7~-|
E|--0--0--0--3--3--0--5--0--|--6--0--------0-----0-----|
     .  .  .        .     .        .        .     . 

E|--------------------------|--------------------------|
B|--------------------------|--------------------------|
G|--------------------------|--------------------------|
D|--------------------------|--------------------------|
A||~(7)-------5--5-----4-----|--5-----7--7-----5-----7~-|
E|--------0--3--3--0--2--0--|--3--0--------0-----0-----|
           .        .     .        .        .     . 

E|--------------------------|--------------------------|
B|--------------------------|--------------------------|
G|--------------------------|--------------------------|
D|--------------------------|--------------------------|
A||~(7)-------5--5-----7-----|--8-----7--7-----5-----7~-|
E|--------0--3--3--0--5--0--|--6--0--------0-----0-----|
           .        .     .        .        .     . 

E|--------------------------|--------------------------|
B|--------------------------|--------------------------|
G|--------------------------|--------------------------|
D|--------------------------|--------------------------|
A||~(7)-------5--5-----4-----|--5-----7--7-----5-----7~-|
E|--------0--3--3--0--2--0--|--3--0--------0-----0-----|
           .        .     .        .        .     . 

RIFF 4:
E|--------------------------|--------------------------|
B|--------------------------|--------------------------|
G|--------------------------|--------------------------|
D|--------------------------|--------------------------|
A||~(7)-------5--5-----7-----|--8-----7--7-----5-----7~-|
E|--------0--3--3--0--5--0--|--6--0--------0-----0-----|
           .        .     .        .        .     . 

E|--------------------------|--------------------------|
B|--------------------------|--------------------------|
G|--------------------------|--------------------------|
D|--------------------------|--------------------------|
A||~(7)--7-------------------|--------7--7-----5-----7~-|
E|---------6--0--3--6--5---|--0--0--------0-----0-----|
               .                .  .        .     .

E|--------------------------|--------------------------|
B|--------------------------|--------------------------|
G|--------------------------|--------------------------|
D|--------------------------|--------------------------|
A||~(7)--7-------------------|--------7--7-----5-----7~-|
E|---------6--0--3--6--5---|--0--0--------0-----0-----|
               .                .  .        .     .
E|--------------------------|--------------------------|
B|--------------------------|--------------------------|
G|--------------------------|--------------------------|
D|--------------------------|--------------------------|
A||~(7)--7-------------------|--------7--7-----5-----7~-|
E|---------6--0--3--6--5---|--0--0--------0-----0-----|
               .                .  .        .     .
E|--------------------------|
B|--------------------------|
G|--------------------------|
D|--------------------------|
A||~(7)--7-------------------|
E|---------6--0--3--6--5---|
               .             

RIFF 5
E|--------------------------|--------------------------|
B|--------------------------|--------------------------|
G|--------------------------|--------------------------|
D|--------------------------|--------------------------|
A|--2-----2~----------2--2--|--x--x--2--2~-------2--2--|
E|--0-----0~----------0--0--|--x--x--0--0~-------0--0--|

E|--------------------------|--------------------------|
B|--------------------------|--------------------------|
G|--------------------------|--------------------------|
D|--------------------------|--------------------------|
A|--x--x--2--2~-------2--2--|--x--x--2--2~-------2--2--|
E|--x--x--0--0~-------0--0--|--x--x--0--0~-------0--0--|

RIFF 6:
E|--------------------------|--------------------------|
B|--------------------------|--------------------------|
G|--------------------------|--------------------------|
D|--------9--9-----7-----9~-|~(9)--9-------------------|
A|--2-----7--7-----5-----7~-|~(7)--7--8-----5--8--7---|
E|--0-----------0-----0-----|---------6--0--3--6--5---|
                 .     .                  .
E|--------------------------|--------------------------|
B|--------------------------|--------------------------|
G|--------------------------|--------------------------|PLAY RIFF 6 FOUR TIMES
D|--------------------------|--------------------------|
A|--------2--5-----7-----8~-|~(8)-8--7--5--7--5--5--5--|
E|--0--0--0--3--0--5--0--6~-|~(6)-6--5--3--5--3--3--3--|
     .  .        .     . 

E|--------------------------|
B|--------------------------|
G|--------------------------|
D|--------------------------|
A|--------------------------|
E|--0--0--0--0--0--0--0--0--|
     .  .  .  .  .  .  .  . 


[Verse 1]
E|--------------------------|--------------------------|
B|--------------------------|--------------------------|
G|--------------------------|--------------------------|
D|--------------------------|--------------------------|
A|-----------5--5-----7-----|--8-----------2-----------|
E|--0--0--0--3--3--0--5--0--|--6--0--0--0--0--0--0--0--|
     .  .  .        .     .        .  .  .     .  .  .

E|--------------------------|--------------------------|
B|--------------------------|--------------------------|
G|--------------------------|--------------------------|
D|--------------------------|--------------------------|
A|-----------5--5-----4-----|--5-----------------------|
E|--0--0--0--3--3--0--2--0--|--3--0--0--0--0--0--0--0--|
     .  .  .        .     .        .  .  .  .  .  .  .

E|--------------------------|--------------------------|
B|--------------------------|--------------------------|
G|--------------------------|--------------------------|
D|--------------------------|--------------------------|
A|-----------5--5-----7-----|--8-----------2-----------|
E|--0--0--0--3--3--0--5--0--|--6--0--0--0--0--0--0--0--|
     .  .  .        .     .        .  .  .     .  .  .

E|--------------------------|--------------------------|
B|--------------------------|--------------------------|
G|--------------------------|--------------------------|
D|--------------------------|--------------------------|
A|-----------5--5-----4-----|--5-----------------------|
E|--0--0--0--3--3--0--2--0--|--3--0--0--0--0--0--0--0--|
     .  .  .        .     .        .  .  .  .  .  .  .

E|--------------------------|--------------------------|
B|--------------------------|--------------------------|
G|--------------------------|--------------------------|
D|--------------------------|--------------------------|
A|-----------5--5-----7-----|--8-----------2-----------|
E|--0--0--0--3--3--0--5--0--|--6--0--0--0--0--0--0--0--|
     .  .  .        .     .        .  .  .     .  .  .

E|--------------------------|--------------------------|
B|--------------------------|--------------------------|
G|--------------------------|--------------------------|
D|--------------------------|--------------------------|
A|-----------5--5-----4-----|--5-----------------------|
E|--0--0--0--3--3--0--2--0--|--3--0--0--0--0--0--0--0--|
     .  .  .        .     .        .  .  .  .  .  .  .

E|--------------------------|--------------------------|
B|--------------------------|--------------------------|
G|--------------------------|--------------------------|
D|--------------------------|--------------------------|
A|-----------5--5-----7-----|--8-----------2-----------|
E|--0--0--0--3--3--0--5--0--|--6--0--0--0--0--0--0--0--|
     .  .  .        .     .        .  .  .     .  .  .

E|--------------------------|--------------------------|
B|--------------------------|--------------------------|
G|--------------------------|--------------------------|
D|--------------------------|--------------------------|
A|-----------5--5-----4-----|--5-----------------------|
E|--0--0--0--3--3--0--2--0--|--3--0--0--0--0--0--0--0--|
     .  .  .        .     .        .  .  .  .  .  .  .

E|--------------------------|
B|--------------------------|
G|--------------------------|
D|--------------------------|
A|--2--2--2--2--2--2--2--2--|
E|--0--0--0--0--0--0--0--0--|
     .  .  .  
   
[Pre-Chorus]
E|--------------------------|--------------------------|
B|--------------------------|--------------------------|
G|--------------------------|--------------------------|
D|--------9--9-----7-----12~|~(12)---9--9-----7--------|
A|--2-----7--7-----5-----10~|~(10)---7--7-----5-----5~-|
E|--0-----------0-----0-----|------0-------0-----0--3~-|
                 .     .            .       .     .

E|--------------------------|--------------------------|
B|--------------------------|--------------------------|
G|--------------------------|--------------------------|
D|--------9--9-----7-----12~|~(12)---9--9-----7--------|
A||~(5)----7--7-----5-----10~|~(10)---7--7-----5-----5~-|
E||~(3)-0--------0-----0-----|------0-------0-----0--3~-|
        .        .     .            .       .     .

E|--------------------------|--------------------------|
B|--------------------------|--------------------------|
G|--------------------------|--------------------------|
D|--------9--9-----7-----12~|~(12)---9--9-----4-----5~-|
A||~(5)----7--7-----5-----10~|~(10)---7--7-----2-----3~-|
E||~(3)-0--------0-----0-----|------0-------0-----0-----|
        .        .     .            .       .     .

E|--------------------------|--------------------------|
B|--------------------------|--------------------------|
G|--------------------------|--------------------------|
D||~(5)----5--5-----2-----4~-|~(4)----4--4--------------|
A||~(3)----3--3-----0-----2~-|~(2)----2--2-----5-----2~-|
E|-----0--------0-----0-----|-----0--------0--3--0--0~-|
        .        .     .           .        .     .      

[Chorus]
E|--------------------------|--------------------------|
B|--------------------------|--------------------------|
G|--------------------------|--------------------------|
D|--------------------------|--------------------------|
A||~(2)-------5--5--x--x--2--|--2~-------5--5--x--x--2--|
E||~(0)-------3--3--x--x--0--|--0~-------3--3--x--x--0--|

E|--------------------------|--------------------------|
B|--------------------------|--------------------------|
G|--------------------------|--------------------------|
D|--------------------------|--------------------------|
A|--2~-------5--5--x--x--2--|--2~-------5--5--x--x--2--|
E|--0~-------3--3--x--x--0--|--0~-------3--3--x--x--0--|

E|--------------------------|--------------------------|
B|--------------------------|--------------------------|
G|--------------------------|--------------------------|
D|--------------------------|--------------------------|
A|--2~-------5--5--x--x--2--|--2~-------5--5--x--x--2--|
E|--0~-------3--3--x--x--0--|--0~-------3--3--x--x--0--|

E|--------------------------|--------------------------|
B|--------------------------|--------------------------|
G|--------------------------|--------------------------|
D|--------------------------|--------------------------|
A|--2~-------5--5--x--x--2--|--2~-------5--5--x--x--2--|
E|--0~-------3--3--x--x--0--|--0~-------3--3--x--x--0--|


RIFF 6
E|--------------------------|--------------------------|
B|--------------------------|--------------------------|
G|--------------------------|--------------------------|
D|--------9--9-----7-----9~-|~(9)--9-------------------|
A|--2-----7--7-----5-----7~-|~(7)--7--8-----5--8--7---|
E|--0-----------0-----0-----|---------6--0--3--6--5---|
                 .     .                  .
E|--------------------------|--------------------------|
B|--------------------------|--------------------------|
G|--------------------------|--------------------------|
D|--------------------------|--------------------------|
A|--------2--5-----7-----8~-|~(8)-8--7--5--7--5--5--5--|
E|--0--0--0--3--0--5--0--6~-|~(6)-6--5--3--5--3--3--3--|
     .  .        .     .       

E|--------------------------|--------------------------|
B|--------------------------|--------------------------|
G|--------------------------|--------------------------|
D|--------9--9-----7-----9~-|~(9)--9-------------------|
A|--2-----7--7-----5-----7~-|~(7)--7--8-----5--8--7---|
E|--0-----------0-----0-----|---------6--0--3--6--5---|
                 .     .                  .
E|--------------------------|--------------------------|
B|--------------------------|--------------------------|
G|--------------------------|--------------------------|
D|--------------------------|--------------------------|
A|--------2--5-----7-----8~-|~(8)-8--7--5--7--5--5--5--|
E|--0--0--0--3--0--5--0--6~-|~(6)-6--5--3--5--3--3--3--|
     .  .        .     . 

E|--------------------------|
B|--------------------------|
G|--------------------------|
D|--------------------------|
A|--------------------------|
E|--0--0--0--0--0--0--0--0--|
     .  .  .  .  .  .  .  .

[Verse 2]
E|--------------------------|--------------------------|
B|--------------------------|--------------------------|
G|--------------------------|--------------------------|
D|--------------------------|--------------------------|
A|-----------5--5-----7-----|--8-----------2-----------|
E|--0--0--0--3--3--0--5--0--|--6--0--0--0--0--0--0--0--|
     .  .  .        .     .        .  .  .     .  .  .

E|--------------------------|--------------------------|
B|--------------------------|--------------------------|
G|--------------------------|--------------------------|
D|--------------------------|--------------------------|
A|-----------5--5-----4-----|--5-----------------------|
E|--0--0--0--3--3--0--2--0--|--3--0--0--0--0--0--0--0--|
     .  .  .        .     .        .  .  .  .  .  .  .

E|--------------------------|--------------------------|
B|--------------------------|--------------------------|
G|--------------------------|--------------------------|
D|--------------------------|--------------------------|
A|-----------5--5-----7-----|--8-----------2-----------|
E|--0--0--0--3--3--0--5--0--|--6--0--0--0--0--0--0--0--|
     .  .  .        .     .        .  .  .     .  .  .

E|--------------------------|--------------------------|
B|--------------------------|--------------------------|
G|--------------------------|--------------------------|
D|--------------------------|--------------------------|
A|-----------5--5-----4-----|--5-----------------------|
E|--0--0--0--3--3--0--2--0--|--3--0--0--0--0--0--0--0--|
     .  .  .        .     .        .  .  .  .  .  .  .

E|--------------------------|--------------------------|
B|--------------------------|--------------------------|
G|--------------------------|--------------------------|
D|--------------------------|--------------------------|
A|-----------5--5-----7-----|--8-----------2-----------|
E|--0--0--0--3--3--0--5--0--|--6--0--0--0--0--0--0--0--|
     .  .  .        .     .        .  .  .     .  .  .

E|--------------------------|--------------------------|
B|--------------------------|--------------------------|
G|--------------------------|--------------------------|
D|--------------------------|--------------------------|
A|-----------5--5-----4-----|--5-----------------------|
E|--0--0--0--3--3--0--2--0--|--3--0--0--0--0--0--0--0--|
     .  .  .        .     .        .  .  .  .  .  .  .

E|--------------------------|--------------------------|
B|--------------------------|--------------------------|
G|--------------------------|--------------------------|
D|--------------------------|--------------------------|
A|-----------5--5-----7-----|--8-----------2-----------|
E|--0--0--0--3--3--0--5--0--|--6--0--0--0--0--0--0--0--|
     .  .  .        .     .        .  .  .     .  .  .

E|--------------------------|--------------------------|
B|--------------------------|--------------------------|
G|--------------------------|--------------------------|
D|--------------------------|--------------------------|
A|-----------5--5-----4-----|--5-----------------------|
E|--0--0--0--3--3--0--2--0--|--3--0--0--0--0--0--0--0--|
     .  .  .        .     .        .  .  .  .  .  .  .

E|--------------------------|
B|--------------------------|
G|--------------------------|
D|--------------------------|
A|--2--2--2--2--2--2--2--2--|
E|--0--0--0--0--0--0--0--0--|
     .  .  . 

[Pre-Chorus]
E|--------------------------|--------------------------|
B|--------------------------|--------------------------|
G|--------------------------|--------------------------|
D|--------9--9-----7-----12~|~(12)---9--9-----7--------|
A|--2-----7--7-----5-----10~|~(10)---7--7-----5-----5~-|
E|--0-----------0-----0-----|------0-------0-----0--3~-|
                 .     .            .       .     .

E|--------------------------|--------------------------|
B|--------------------------|--------------------------|
G|--------------------------|--------------------------|
D|--------9--9-----7-----12~|~(12)---9--9-----7--------|
A||~(5)----7--7-----5-----10~|~(10)---7--7-----5-----5~-|
E||~(3)-0--------0-----0-----|------0-------0-----0--3~-|
        .        .     .            .       .     .

E|--------------------------|--------------------------|
B|--------------------------|--------------------------|
G|--------------------------|--------------------------|
D|--------9--9-----7-----12~|~(12)---9--9-----4-----5~-|
A||~(5)----7--7-----5-----10~|~(10)---7--7-----2-----3~-|
E||~(3)-0--------0-----0-----|------0-------0-----0-----|
        .        .     .            .       .     .

E|--------------------------|--------------------------|
B|--------------------------|--------------------------|
G|--------------------------|--------------------------|
D||~(5)----5--5-----2-----4~-|~(4)----4--4--------------|
A||~(3)----3--3-----0-----2~-|~(2)----2--2-----5-----2~-|
E|-----0--------0-----0-----|-----0--------0--3--0--0~-|
        .        .     .           .        .     .      

[Chorus]
E|--------------------------|--------------------------|
B|--------------------------|--------------------------|
G|--------------------------|--------------------------|
D|--------------------------|--------------------------|
A||~(2)-------5--5--x--x--2--|--2~-------5--5--x--x--2--|
E||~(0)-------3--3--x--x--0--|--0~-------3--3--x--x--0--|

E|--------------------------|--------------------------|
B|--------------------------|--------------------------|
G|--------------------------|--------------------------|
D|--------------------------|--------------------------|
A|--2~-------5--5--x--x--2--|--2~-------5--5--x--x--2--|
E|--0~-------3--3--x--x--0--|--0~-------3--3--x--x--0--|

E|--------------------------|--------------------------|
B|--------------------------|--------------------------|
G|--------------------------|--------------------------|
D|--------------------------|--------------------------|
A|--2~-------5--5--x--x--2--|--2~-------5--5--x--x--2--|
E|--0~-------3--3--x--x--0--|--0~-------3--3--x--x--0--|

E|--------------------------|--------------------------|
B|--------------------------|--------------------------|
G|--------------------------|--------------------------|
D|--------------------------|--------------------------|
A|--2~-------5--5--x--x--2--|--2~-------5--5--x--x--2--|
E|--0~-------3--3--x--x--0--|--0~-------3--3--x--x--0--|

RIFF 6:
E|--------------------------|--------------------------|
B|--------------------------|--------------------------|
G|--------------------------|--------------------------|
D|--------9--9-----7-----9~-|~(9)--9-------------------|
A|--2-----7--7-----5-----7~-|~(7)--7--8-----5--8--7---|
E|--0-----------0-----0-----|---------6--0--3--6--5---|
                 .     .                  .
E|--------------------------|--------------------------|
B|--------------------------|--------------------------|
G|--------------------------|--------------------------|
D|--------------------------|--------------------------|
A|--------2--5-----7-----8~-|~(8)-8--7--5--7--5--5--5--|
E|--0--0--0--3--0--5--0--6~-|~(6)-6--5--3--5--3--3--3--|
     .  .        .     .

NATURAL HARMONIC SLIDE FROM 7th DOWN
E|--------------------------|
B|--------------------------|
G|--------------------------|
D|--------------------------|
A|--------------------------|
E|--'7'--------------------|

RIFF 7:
E|--------------------------|--------------------------|
B|--------------------------|--------------------------|
G|--------------------------|--------------------------|
D|--------------------------|--------------------------|
A|--2~----4--5~-------4--2~-|~(2)---/7--5~-------4--2--|
E|--0~----2--3~-------2--0~-|~(0)---/5--3~-------2--0--|
   
E|--------------------------|
B|--------------------------|
G|--------------------------|
D|--------------------------|
A|--7p0-7---0h7-7---7p0-7---|
E|--------------------------|
   
E|--------------------------|--------------------------|
B|--------------------------|--------------------------|
G|--------------------------|--------------------------|
D|--------------------------|--------------------------|
A|--2~----4--5~-------4--2--|--x-x-----x-x-x-----------|
E|--0~----2--3~-------2--0--|--x-x-----x-x-x-----------|

E|--------------------------|--------------------------|
B|--------------------------|--------------------------|
G|--------------------------|--------------------------|
D|--------------------------|--------------------------|
A|--2~----4--5~-------4--2--|--7p0-7---0h7-7---7p0-7---|
E|--0~----2--3~-------2--0--|--------------------------|

E|--------------------------|----------------------------------------------------------|
B|--------------------------|--------------------------------------6h8-8-8-8-8--13~----|
G|--------------------------|--------------------------5h7-7-7-7-7---------------------|
D|--------------------------|--------------7h8-8-8-8-8---------------------------------|
A|--2~----4--5~-------4--2--|--3h5-5-5-5-5---------------------------------------------|
E|--0~----2--3~-------2--0--|----------------------------------------------------------|

[GUITAR SOLO]
E|----------------------------------|------------------------------|
B|----------------------------------|------------------------------|
G|--/12~--0-12-0-12~--0-12-0-12~--0-|-12-0-12~--0-12-0-12~--0-12~--|
D|----------------------------------|------------------------------|
A|----------------------------------|------------------------------|
E|----------------------------------|------------------------------|

E|-----------------------------------|-------------------------------------------------------------|
B|--------------------------------0^-|-15-14-12----12----------------15-14-12----12----------------|
G|-12-0-12-0-12-0-12-0-12-0-12-0--0^-|----------15----15-14-12----12----------15----15-14-12----12-|
D|-----------------------------------|-------------------------14----------------------------14----|
A|-----------------------------------|-------------------------------------------------------------|
E|-----------------------------------|-------------------------------------------------------------|

E|---------------------------------|-------------------------------------------------------------|
B|---------------------------------|-15-14-12----12----------------15-14-12----12----------------|
G|-14b16--14--12------14--12-------|----------15----15-14-12----12----------15----15-14-12----12-|
D|----------------14----------14---|-------------------------14----------------------------14----|
A|---------------------------------|-------------------------------------------------------------|
E|---------------------------------|-------------------------------------------------------------|

E|------------------------------------------|-----------------------------|---------------------------------|
B|------------------------------------------|-----------------------------|---------------------------------|
G|-14-15b17-15b17-17b19-17b19-19b21-19b21--|-------------------------12~-|~(12)-------------------------14~|
D|------------------------------------------|-----14--14--14-12----12-12~-|~(12)---- 14--14--14-12----12-14~|
A|------------------------------------------|-------------------14--------|------------------------14-------|
E|------------------------------------------|-----------------------------|---------------------------------|

E|-----------------------------------------------|
B|-----------------------------------------------|
G||~(14)-------------------------12^-WHAMMY BAR---|
D||~(14)---- 14--14--14-12----12-12^--------------|
A|------------------------14---------------------|
E|-----------------------------------------------|

E|-----------------------------|-------------------------------------------------|
B|-----------------------------|-16-12----12-16-12----12-16-12-16-12-14-12----12-|
G|-------------------------12--|-------11----------11----------------------14----|
D|-----14--14--14-12----12-----|-------------------------------------------------|
A|-------------------14--------|-------------------------------------------------|
E|-----------------------------|-------------------------------------------------|

E|----------12--------------------------------------|----------------------------|
B|-------12----15-12----12-15-12--------------------|-12-------------------------|
G|-14b16-------------14----------14-12----12-14b16--|----14-12----12-14b16-------|
D|-------------------------------------14-----------|----------14----------------|
A|--------------------------------------------------|----------------------------|
E|--------------------------------------------------|----------------------------|

E|------------------------------------|---------------------------------|
B|-12-------------------12------------|---------------------------------|
G|----14-12----12-14b16----14-12------|---12----------------------------|
D|----------14-------------------14---|-------14--14~-------------------|
A|------------------------------------|---------------------------------|
E|------------------------------------|---------------------------------|

[BREAKDOWN]
E|--------------------------|--------------------------|
B|--------------------------|--------------------------|
G|--------------------------|--------------------------|
D|--------------------------|--------------------------|
A|--------2--------2--------|--2--------2--------2-----|
E|--------0--------0--------|--0--------0--------0-----|
           .        .           .        .        .      
     1  +  2  +  3  +  4  +     1  +  2  +  3  +  4  +

E|--------------------------|--------------------------|
B|--------------------------|--------------------------|
G|--------------------------|--------------------------|
D|--------------------------|--------------------------|
A|--------2--------2--------|--2--------2--------2-----|
E|--------0--------0--------|--0--------0--------0-----|
           .        .           .        .        .      
     1  +  2  +  3  +  4  +     1  +  2  +  3  +  4  +

E|--------------------------|--------------------------|
B|--------------------------|--------------------------|
G|--------------------------|--------------------------|
D|--------------------------|--------------------------|
A|--------------------------|--------------5h7-7-7-5~--|
E|--0--0-0--0-0--0--0--0-0-0|---------0-0--------------|
     .  . .  . .  .  .  . . .          . . 

E|--------------------------|--------------------------|
B|--------------------------|--------------------------|
G|--------------------------|--------------------------|
D|--------------------------|----------------------5~--|
A|--------------------------|--------------5h7-7-7-----|
E|--0--0-0--0-0--0--0--0-0-0|---------0-0--------------|
     .  . .  . .  .  .  . . .          . .

E|--------------------------|--------------------------|
B|--------------------------|--------------------------|
G|--------------------------|--------------------------|
D|--------------------------|--------------------------|
A|--------------------------|--------------5h7-7-7-5~--|
E|--0--0-0--0-0--0--0--0-0-0|----0----0-0--------------|
     .  . .  . .  .  .  . . .     .    . . 

E|--------------------------|--------------------------|
B|--------------------------|--------------------------|
G|--------------------------|--------------------------|
D|--------------------------|--------------5--5-5-7-5~-|
A|--------------------------|---------7-7--------------|
E|--0--0-0--0-0--0--0--0-0-0|---0----------------------|
     .  . .  . .  .  .  . . .    .

[BREAKDOWN 2]
E|--------------------------|--------------------------|
B|--------------------------|--------------------------|
G|--------------------------|--------------------------|
D|--------------------------|--------5----5/9--8--7~---|
A|--------7--7-----5-----7~-|~(7)-7-----7--------------|
E|--0-0-0-------0-----0-----|--------------------------|
     . . .       .     . 
E|--------------------------|--------------------------|
B|--------------------------|--------------------------|
G|--------------------------|--------------------------|
D|--------------------------|--------5----5/8--7--5~---|
A|--------7--7-----5-----7~-|~(7)-7-----7--------------|
E|--0-0-0-------0-----0-----|--------------------------|
     . . .       .     . 
E|--------------------------|--------------------------|
B|--------------------------|--------------------------|
G|--------------------------|--------------------------|
D|--------------------------|--------5----5/9--8--7~---|
A|--------7--7-----5-----7~-|~(7)-7-----7--------------|
E|--0-0-0-------0-----0-----|--------------------------|
     . . .       .     .                 
E|--------------------------|--------------------------|
B|--------------------------|--------------------------|
G|--------------------------|--------------------------|
D|--------------------------|--------5----5/8--7-------|
A|--------7--7-----5-----7~-|~(7)-7-----7---------5~---|
E|--0-0-0-------0-----0-----|--------------------------|
     . . .       .     . 

[BREAKDOWN 3]
E|--------------------------|--------------------------|
B|--------------------------|--------------------------|
G|--------------------------|--------------------------|
D|----------5~---------5~---|--------7---9-------------|
A|----7p5h7-------7p5h7-----|--7p5h7--------7~---------|
E|--0-----------------------|--------------------------|

E|--------------------------|--------------------------|
B|--------------------------|--------------------------|
G|--------------------------|--------------------------|
D|----------5~---------5~---|--------7---9-------------|
A|----7p5h7-------7p5h7-----|--7p5h7--------7~---------|
E|--0-----------------------|--------------------------|

E|--------------------------|--------------------------|
B|--------------------------|--------------------------|
G|--------------------------|--------------------------|
D|----------5~---------5~---|--------7---9-------------|
A|----7p5h7-------7p5h7-----|--7p5h7--------7~---------|
E|--0-----------------------|--------------------------|

E|--------------------------|---------------------12--14-|--12~------------------|
B|--------------------------|-----------10--9--8---------|--15b17~---------------|
G|--------------------------|--9--8--7-------------------|-----------------------|
D|--9---8---7~---9---8---7~-|----------------------------|-----------------------|
A|--------------------------|----------------------------|-----------------------|
E|--------------------------|----------------------------|-----------------------|

[Pre-Chorus]
E|--------------------------|--------------------------|
B|--------------------------|--------------------------|
G|--------------------------|--------------------------|
D|--------9--9-----7-----12~|~(12)---9--9-----7--------|
A|--2-----7--7-----5-----10~|~(10)---7--7-----5-----5~-|
E|--0-----------0-----0-----|------0-------0-----0--3~-|
                 .     .            .       .     .

E|--------------------------|--------------------------|
B|--------------------------|--------------------------|
G|--------------------------|--------------------------|
D|--------9--9-----7-----12~|~(12)---9--9-----7--------|
A||~(5)----7--7-----5-----10~|~(10)---7--7-----5-----5~-|
E||~(3)-0--------0-----0-----|------0-------0-----0--3~-|
        .        .     .            .       .     .

E|--------------------------|--------------------------|
B|--------------------------|--------------------------|
G|--------------------------|--------------------------|
D|--------9--9-----7-----12~|~(12)---9--9-----4-----5~-|
A||~(5)----7--7-----5-----10~|~(10)---7--7-----2-----3~-|
E||~(3)-0--------0-----0-----|------0-------0-----0-----|
        .        .     .            .       .     .

E|--------------------------|--------------------------|
B|--------------------------|--------------------------|
G|--------------------------|--------------------------|
D||~(5)----5--5-----2-----4~-|~(4)----4--4--------------|
A||~(3)----3--3-----0-----2~-|~(2)----2--2-----5-----2~-|
E|-----0--------0-----0-----|-----0--------0--3--0--0~-|
        .        .     .           .        .     .      

[Chorus]
E|--------------------------|--------------------------|
B|--------------------------|--------------------------|
G|--------------------------|--------------------------|
D|--------------------------|--------------------------|
A||~(2)-------5--5--x--x--2--|--2~-------5--5--x--x--2--|
E||~(0)-------3--3--x--x--0--|--0~-------3--3--x--x--0--|

E|--------------------------|--------------------------|
B|--------------------------|--------------------------|
G|--------------------------|--------------------------|
D|--------------------------|--------------------------|
A|--2~-------5--5--x--x--2--|--2~-------5--5--x--x--2--|
E|--0~-------3--3--x--x--0--|--0~-------3--3--x--x--0--|

E|--------------------------|--------------------------|
B|--------------------------|--------------------------|
G|--------------------------|--------------------------|
D|--------------------------|--------------------------|
A|--2~-------5--5--x--x--2--|--2~-------5--5--x--x--2--|
E|--0~-------3--3--x--x--0--|--0~-------3--3--x--x--0--|

E|--------------------------|--------------------------|
B|--------------------------|--------------------------|
G|--------------------------|--------------------------|
D|--------------------------|--------------------------|
A|--2~-------5--5--x--x--2--|--2~-------5--5--x--x--2--|
E|--0~-------3--3--x--x--0--|--0~-------3--3--x--x--0--|

RIFF 6:
E|--------------------------|--------------------------|
B|--------------------------|--------------------------|
G|--------------------------|--------------------------|
D|--------9--9-----7-----9~-|~(9)--9-------------------|
A|--2-----7--7-----5-----7~-|~(7)--7--8-----5--8--7---|
E|--0-----------0-----0-----|---------6--0--3--6--5---|
                 .     .                  .
E|--------------------------|--------------------------|
B|--------------------------|--------------------------|
G|--------------------------|--------------------------|
D|--------------------------|--------------------------|
A|--------2--5-----7-----8~-|~(8)-8--7--5--7--5--5--5--|
E|--0--0--0--3--0--5--0--6~-|~(6)-6--5--3--5--3--3--3--|
     .  .        .     .

[Outro]
E|--------------------------|--------------------------|
B|--------------------------|--------------------------|
G|--------------------------|--------------------------|
D|--------------------------|--------------------------|
A|--5~------/8~-------------|--5~------/8~-------------|
E|--3~------/6~-------------|--3~------/6~-------------|

E|--------------------------|--------------------------|
B|--------------------------|--------------------------|
G|--------------------------|--------------------------|
D|--------------------------|--------------------------|
A|--7~------/10~------------|--9~------/12~------------|
E|--5~------/8~-------------|--7~------/10~------------|

E|---------------------------|
B|---------------------------|
G|---------------------------|
D|---------------------------|
A|--x-----------------------|
E|--x-----------------------|

E|--------------------------|--------------------------|
B|--------------------------|--------------------------|
G|--------------------------|--------------------------|
D|--------9--9-----7-----9~-|~(9)--9-------------------|
A|--2-----7--7-----5-----7~-|~(7)--7--8-----5--8--7---|
E|--0-----------0-----0-----|---------6--0--3--6--5---|
                 .     .                  .
E|--------------------------|--------------------------|
B|--------------------------|--------------------------|
G|--------------------------|--------------------------|
D|--------------------------|--------------------------|
A|--------2--5-----7-----8~-|~(8)-8--7--5--7--5--5--5--|
E|--0--0--0--3--0--5--0--6~-|~(6)-6--5--3--5--3--3--3--|
     .  .        .     .

NATURAL HARMONIC SLIDE FROM 7th DOWN
E|--------------------------|
B|--------------------------|
G|--------------------------|
D|--------------------------|
A|--------------------------|
E|--'7'--------------------|

E|--------------------------|--------------------------|
B|--------------------------|--------------------------|
G|--------------------------|--------------------------|
D|--------------------------|--------------------------|
A|--2~----4--5~-------4--2~-|~(2)---/7--5~-------4--2--|
E|--0~----2--3~-------2--0~-|~(0)---/5--3~-------2--0--|

E|--------------------------|
B|--------------------------|
G|--------------------------|
D|--------------------------|
A|--7p0-7---0h7-7---7p0-7---|
E|--------------------------|

E|--------------------------|-----------------------------------|
B|--------------------------|-----------------------------------|
G|--------------------------|-----------------------------------|
D|--------------------------|-----------------------------------|
A|--2~----4--5~-------4--2--|--x-x---x-x-x--x-x-x--x-x-x--x--2--|
E|--0~----2--3~-------2--0--|--x-x---x-x-x--x-x-x--x-x-x--x--0--|
Composição de James Hetfield / Lars Ulrich
Colaboração e revisão:
  • Pedro Rodrigues
3.207 exibições
    • ½ Tom
    • A
    • Bb
    • B
    • C
    • Db
    • D
    • Eb
    • E
    • F
    • F#
    • G
    • Ab
  • Adicionar à lista

    0 comentários

    Ver todos os comentários

    Conseguiu tocar?

    0 Tocaram 0 Ainda não

    Grave um vídeo tocando Now That We're Dead e nos envie!

    00:00 / 00:00
    outros vídeos desta música
    repetir qualidade Automático
    Outros vídeos desta música
    00:00 / 00:00
    Automático

    Cifra Club Pro

    Aproveite o Cifra Club com benefícios exclusivos e sem anúncios
    Cifra Club Pro
    Aproveite o Cifra Club com benefícios exclusivos e sem anúncios
    OK