Cifra Club

Aprenda

Of Wolf And Man

Metallica

Cifra: Principal (violão e guitarra)
tom: E
-Intro-

|-------------------------------------------------|
|-------------------------------------------------|
|-------------------------------------------------|
|-2-2-2-2-2-2-2-2-2-2-2-2-2-2-2-2-2-2-2-2-2-2-2-2-|
|-2-2-2-2-2-2-2-2-2-2-2-2-2-2-2-2-2-2-2-2-2-2-2-2-|
|-0-0-0-0-0-0-0-0-0-0-0-0-0-0-0-0-0-0-0-0-0-0-0-0-|

|-------------------------|------|
|-------------------------|------|
|-------------------------|-Play-|
|-----------------4----3--|--4x--|
|--------3--2-----2----1--|------|
|-0--0-0-1--0--0----0-----|------|
 |--PM--|      PM   PM
  
|----------------------------|------|
|----------------------------|------|
|----------------------------|-Play-|
|----------------------4--3--|--4x--|
|--------3--2----------2--1--|------|
|-0--0-0-1--0--0--0-0--------|------|
 |--PM--|     |--PM--|

-Verse-

1ª Parte
|----------------------------|
|----------------------------|
|----------------------------|
|----------------------4--3--|
|--------3--2----------2--1--|
|-0--0-0-1--0--0--0-0--------|

-Letra-

Off through the new day's mist I run
off from the new day's mist I have come
I hunt
therefore I am
harvest the land
taking of the fallen lamb

2ª Parte
|-----------------------------------|
|-----------------------------------|
|-----------------------------------|
|-----------------4----3--2p0-2~-2~-|
|--------3--2-----2----1------------|
|-0--0-0-1--0--0----0---------------|
 |--PM--|      PM   PM

-Letra-
  
off thruogh the new day's mist I run
off from the new day'smist I have come
we shift
pulsing with the earth
company we keep
roaming the land while you sleep

-Chorus-

...sleep             Shape Shift  Nose to the Wind
|-------------------------------|------------------|
|-------------------------------|------------------|
|-------------------------------|------------------|
|-2-2-2-2-----4----3------------|------------------|
|-2-2-2-2-----2----1------------|---------3--2-----|
|-0-0-0-0--0----0---------------|-0--0-0--1--0-----|
           PM   PM               |--PM--|

            Shape Shift Feeling I´ve Been
|----------------------|------------------|
|----------------------|------------------|
|----------------------|------------------|
|----4----3------------|------------------|
|----2----1------------|--------3--2------|
|-0----0---------------|-0--0-0-1--0------|
  PM   PM               |--PM--|

            Move Swift All senses clean
|---------------------|-----------------|
|---------------------|-----------------|
|---------------------|-----------------|
|----6----5-----------|-----------------|
|----4----3-----------|--------3--2-----|
|-0----0--------------|-0--0-0-1--0-----|
  PM   PM              |--PM--|

           Earth´s Gift (Back to the Meaning)
|---------------------|--------------------------|
|---------------------|--------------------------|
|---------------------|--------------------------|
|----6----5-----------|--------------------------|
|----4----3-----------|--------------3----2------|
|-0----0--------------|-0---0--0-----1----0------|
  PM   PM              |---PM---|

  Back to the meaning   of         LIFE!
|---------------------|--------------------------|
|---------------------|--------------------------|
|---------------------|--------------------------|
|-------------4----3--|--2-2-2-2-----------------|
|-------------2----1--|--2-2-2-2-----------------|
|-0---0--0------------|--0-0-0-0---14/-----------|
 |---PM---|

(Repetir 2ª Parte do Verse)

-Letra-

bright is the moon high in starlight
chill is the air cold as steel tonight
we shift
call of the wild
fear in your eyes
it's later than you realized

(Repetir Chorus)

-BridgeI-

|----------------------------|------|
|----------------------------|------|
|----------------------------|-Play-|
|----------------------4--3--|--4x--|
|--------3--2----------2--1--|------|
|-0--0-0-1--0--0--0-0--------|------|
 |--PM--|     |--PM--|

|-------------------------|
|-------------------------|
|-------------------------|
|-----------------4----3--|
|--------3--2-----2----1--|
|-0--0-0-1--0--0----0-----|
 |--PM--|      PM   PM

-Solo-

|--------------------------------------|
|--------------------------------------|
|--4p2p0---0----4p2p0---0----4p2p0-----|
|--------2------------2------------2p0-|
|--------------------------------------|
|--------------------------------------|

--------------------------------------------------|
--------------------------------------------------|
--4p2p0-------------4p2p0-4p2p0-------------------|
--------4p2p0-------------------4p2p0-4p2p0-------|
--------------4p2p0-------------------------4p2p0-|
--------------------------------------------------|

----------------------------------|-------------------------------------------|
----------------------------------|-------------------------------------------|
----------------------------------|---------------------------------12h14-14b-|
----------------------------------|---------------------------12h14-----------|
--2p0-3p0-4p0-5p0-6p0-7p0-8p0-9p0-|--9p0-10p0-11p0-12p0-12h14-----------------|
----------------------------------|-------------------------------------------|

----------------------------------------------------------|
--8----------12-15----12-15p12----12h15p12----12h15p12----|
----9---9/14-------14b---------14----------14----------14-|
----------------------------------------------------------|
----------------------------------------------------------|
----------------------------------------------------------|

------------------------------------------------------------------------|
--12h15p12----12h15p12----12h15p12----12h15p12----12h15p12----12h15p12--|
-----------14----------14----------14----------14----------14-----------|
------------------------------------------------------------------------|
------------------------------------------------------------------------|
------------------------------------------------------------------------|

--------------12-------------12-------|
--15b--15b-------15p12----12----15p12-|
-----------------------14b------------|
--------------------------------------|
--------------------------------------|
--------------------------------------|

-----12-12------------------------------------|---------------------------|
-----------15p12----12-15p12------------------|---------------------------|
--14b------------14b---------14p12----12-14b--|--12-----------------------|
-----------------------------------14---------|-----14~-------14\--8/-17--|
----------------------------------------------|---------------------------|
----------------------------------------------|---------------------------|

----------------------------------------|
--15--15-15--15-15--17p15----15--15-15--|
--15--15-15--15-15--17p15----15--15-15--|
--------------------------17------------|
----------------------------------------|
----------------------------------------|

----------------------------------------------|
--17p15---------------------------------------|
--17p15----15-17p15----15-17p15-----------15\-|
--------17----------17----------17-15-17------|
----------------------------------------------|
----------------------------------------------|

------------------------------------|
----------------------------8----8--|
-----------8----8--10-8-10----10----|
--10-8-10----10---------------------|
------------------------------------|
------------------------------------|

-----8--------------------------------------|
--11b--11p8----8-11p8-11b-13-13-13-13-13-13-|
------------10b-----------------------------|
--------------------------------------------|
--------------------------------------------|
--------------------------------------------|

------------------------------------|--------------------------|
--13--13-13--13--13--13--13--13--13-|--11r-------8-------------|
------------------------------------|--------------9~----------|
------------------------------------|--------------------10/14-|
------------------------------------|--------------------------|
------------------------------------|--------------------------|

-----------------------------------------------------------|
--------------14p12----------------14p12----------------14p|
--12h14p12-------------12h14p12-------------12h14p12-------|
-----------14-------14----------14-------14----------14----|
-----------------------------------------------------------|
-----------------------------------------------------------|

----------------------------------------------------|--------------------|
--12----------------14p12-----------------------12--|----------------12--|
--------12h14p12-------------12h14p12-----------12--|----------------12--|
-----14----------14-------14----------14-12-14------|--------------------|
----------------------------------------------------|--------------------|
----------------------------------------------------|--------------------|

-BridgeII-

|------------------------------------------------|
|------------------------------------------------|
|------------------------------------------------|
|------------------------------------------------|
|--------3--2------------------------------------|
|-0--0-0-1--0--0-0-0-0-0-0-0-0-0-0-0-0-0-0-0-0---|
 |--PM--|     |---------------PM--------------| 

-Letra-

I feel I change
back to a better day
hair stands on the back of my neck
in wildness is the preservation of the world

so seek the wolf in thyself!!!

-Chorus-

...sleep             Shape Shift  Nose to the Wind
|-------------------------------|------------------|
|-------------------------------|------------------|
|-------------------------------|------------------|
|-2-2-2-2-----4----3------------|------------------|
|-2-2-2-2-----2----1------------|---------3--2-----|
|-0-0-0-0--0----0---------------|-0--0-0--1--0-----|
           PM   PM               |--PM--|

            Shape Shift Feeling I´ve Been
|----------------------|------------------|
|----------------------|------------------|
|----------------------|------------------|
|----4----3------------|------------------|
|----2----1------------|--------3--2------|
|-0----0---------------|-0--0-0-1--0------|
  PM   PM               |--PM--|

            Move Swift All senses clean
|---------------------|-----------------|
|---------------------|-----------------|
|---------------------|-----------------|
|----6----5-----------|-----------------|
|----4----3-----------|--------3--2-----|
|-0----0--------------|-0--0-0-1--0-----|
  PM   PM              |--PM--|

           Earth´s Gift (Back to the Meaning)
|---------------------|--------------------------|
|---------------------|--------------------------|
|---------------------|--------------------------|
|----6----5-----------|--------------------------|
|----4----3-----------|--------------3----2------|
|-0----0--------------|-0---0--0-----1----0------|
  PM   PM              |---PM---|

  Back to the meaning         of wolf     and man
|---------------------|--------------------------|
|---------------------|--------------------------|
|---------------------|--------------------------|
|-------------4----3--|--4--3---------6--5-------|
|-------------2----1--|--2--1---------4--3-------|
|-0---0--0------------|--------------------------|
 |---PM---|

             Yeah!!!
|--------------------------|
|--------------------------|
|--------------------------|
|--2-2-2-2-----------------|
|--2-2-2-2-----------------|
|--0-0-0-0---14/-----------|
 
(Repetir A 2ª Parte do Verse 2x)

-Outro-

|-----------------------------|
|-----------------------------|
|-----------------------------|
|---------------2-2-2-2-------|
|-5-----5-5-4---2-2-2-2-------|
|-3--0--3-3-2---0-0-0-0-------|

OBS: Na Intro após a quarta vez do Em fazer:

Guitar I

|---------------|
|----Repetir----|
|---------------|
|--2-2-2-2-2-2--|
|--2-2-2-2-2-2--|
|--0-0-0-0-0-0--|

Guitar II

|------------------|
|------------------|
|------------------|
|---9---10--11--12-|
|---7---8---9---10-|
|-0---0---0---0----|
  PM  PM  PM  PM

-Legendas-

PM: Palm Mute
p: pull of   
h: hammer on
b: bend
r: realese
/: slide
  
Tablatura transcrita 
por Renato Perussi Sobrinho
Qualquer erro ou sugestão enviar
Composição de James Hetfield / Kirk Hammett / Lars Ulrich
43.811 exibições
    • ½ Tom
    • A
    • Bb
    • B
    • C
    • Db
    • D
    • Eb
    • E
    • F
    • F#
    • G
    • Ab
  • Adicionar à lista

    0 comentários

    Ver todos os comentários

    Conseguiu tocar?

    6 Tocaram 0 Ainda não

    Grave um vídeo tocando Of Wolf And Man e nos envie!

    00:00 / 00:00
    outros vídeos desta música
    repetir qualidade Automático
    Outros vídeos desta música
    00:00 / 00:00
    Automático

    Cifra Club Pro

    Aproveite o Cifra Club com benefícios exclusivos e sem anúncios
    Cifra Club Pro
    Aproveite o Cifra Club com benefícios exclusivos e sem anúncios
    OK