Cifra Club

Aprenda

Some Kind Of Monster

Metallica

Cifra: Principal (violão e guitarra)
tom: E
Tuning: Drop B  

Low-  (B  F#  B  E  G#  C#)  -High

Introdução com baixo
 
 -------------------------|-----|
 -------------------------|-----|
 -------------------------|-----|
 0-0-3-5-0--0-3-5-0-3-5-0-|-3-5-|


Mais tarde entra a guitarra
 -------------------------------|
 -------------------------------|
 -------------------------------|
 -------------------------------|
 2-22-0-0-2--2-0-0-0-0-0-2--0-0-|
 0-00-3-5-0--0-3-5-0-3-5-0--3-5-|
              .       .     .
                     
Aew a proxima parte com uma batida mais prolongada, é so escuta bem amusica q pega facil.
 ----------------------------------------|
 ----------------------------------------|
 ----------------------------------------|
 ----------------------------------------|
 222222-0-0-2--2-0000-0-2-0000-0-2-000-0-|
 000000-3-5-0--0-3333-5-0-3333-5-0-333-5-|


Riff One - Gtr I
c# ---------|-0-|
G# ---------|-0-|
E  ---------|-0-|
B  ---------|-0-|
F# 333--5-0-|-0-|
B  333--5-0-|---|

Riff One - Gtr II
B  0-3-5-0-|-7b-|
F# --------|----|
B  --------|----|


Verse Riff - Gtr I
F# ---5---55-5-|
B  00---0------|

Verse Riff - Gtr II
F# ----------|
B  5bgr-4bgr-|


Interlude One - Gtr I
F# --------|
B  00-33-1-|
   .. .. .

Interlude One - Gtr II
B  -------7b-|
F# ----------|
B  0-0--0----|
   .



Pre-Chorus- Both Gtrs
F# 1--1--1-1--1-|-3-4-|
B  1--1--1-1--1-|-3-4-|


Chorus - Both Gtrs
F# ----------------|----------------------------------|
B  3-5-0-0-3-3-5-0-|-3-5-0-3-5-0-2-5-0-3-5-00-5-3-5-0-|



Interlude Two - Gtr I
B  ------3-4-----|---|-----|
F# --------------|-1-|-----|
B  0--0------000-|-1-|-111-|
             ...     ...

Interlude Two (PII) - Gtrs I and II
F# 0-44-0-44-|-----|-------|
B  0-44-0-44-|-000-|-5s6-4-|



Chord Part - Gtrs I and II
E  7-6-5-4-7-6-5-4-|-7s4-|
B  7-6-5-4-7-6-5-4-|-7s4-|
F# 5-4-3-2-5-4-3-2-|-5s2-|
B  ----------------|-----|



Outro - Gtr I
E  15-15-15-13-13-13-13H15-13H15-13-|
B  ---------------------------------|
F# ---------------------------------|
B  ---------------------------------|
Composição de Bob Rock / James Hetfield / Kirk Hammett / Lars Ulrich
35.421 exibições
    • ½ Tom
    • A
    • Bb
    • B
    • C
    • Db
    • D
    • Eb
    • E
    • F
    • F#
    • G
    • Ab
  • Adicionar à lista

    0 comentários

    Ver todos os comentários

    Conseguiu tocar?

    3 Tocaram 0 Ainda não

    Grave um vídeo tocando Some Kind Of Monster e nos envie!

    00:00 / 00:00
    outros vídeos desta música
    repetir qualidade Automático
    Outros vídeos desta música
    00:00 / 00:00
    Automático

    Cifra Club Pro

    Aproveite o Cifra Club com benefícios exclusivos e sem anúncios
    Cifra Club Pro
    Aproveite o Cifra Club com benefícios exclusivos e sem anúncios
    OK