Cifra Club

Aprenda

Suicide And Redemption

Metallica

Cifra: Principal (violão e guitarra)
tom: A

e|-----------------
B|----------|
G|----------|
D|-4--4--5--|
A|-2--2--2--|
E|-2--2--3--| x6

e|-----------------
B|-------------------------------------|
G|-------------------------------------|
D|-4~--------4~---------4~---------4~--|
A|-2~--------2~---------2----------2~--|
E|-------------------------------------|

e|-----------------
B|----------------------------------|
G|-------------4-4-------------4-5--|
D|-4-4-4-4-4-4-4-4-4-4-4-4-4-4-4-5--|
A|-2-2-0-2-2-2-----2-2-0-2-2-2------|
E|----------------------------------| x4

e|    ---|
B|-------------------------    ---|
G|-4---4---4---4--5-5-5-5--    -4-|
D|-4---4---4---4--4-4-4-4--    -4-|
A|-2-x-2-x-2-x-2--3-3-3-3--    -2-|
E|------------------------- x3 ---|

(bass riff)

e|-----------------
B|-----------------------------------|
G|-7b^8r7-4--------------------------|
D|--------4-4-4-4-4-4-4-4-4-4-4-4----|
A|-5b^6r5-2-0-2-2-2-0-2-2-2-0-2-0----|
E|-----------------------------------| x4
              [palm muted------------|

e|-----------------
B|--------------------------------------------------------------|
G|-7-7-7-7-7-7-7-7-7-7-7-7-14-14-14-14-14-14-14-14-14-14-14-14-|
D|-------------------------------------------------------------|
A|-5-5-5-5-5-5-5-5-5-5-5-5-12-12-12-12-12-12-12-12-12-12-12-12-|
E|-------------------------------------------------------------|

e|-----------------
B|------------------------------------|
G|-7b^8r7-4--------------------------|
D|--------4-4-4-4-4-4-4-4-4-4-4-4----|
A|-5b^6r5-2-0-2-2-2-0-2-2-2-0-2-0----|
E|-----------------------------------| x4
              [palm muted--------------|

e|-----------------
B|--------------------------------------------------------------|
G|-7-7-7-7-7-7-7-7-7-7-7-7-14-14-14-14-14-14-14-14-14-14-14-14-|
D|-------------------------------------------------------------|
A|-5-5-5-5-5-5-5-5-5-5-5-5-12-12-12-12-12-12-12-12-12-12-12-12-|
E|-------------------------------------------------------------|

e|-----------------
B|-------------------------------------------|
G|------------------------------------------|
D|---------------5/4---5/4------------------|
A|-4-4-2-4-2-4-x-3/2-x-3/2-4-4-2-4-2-4-2-4--|
E|-2-2-0-2-0-2-x-----x-----2-2-0-2-0-2-0-2--| x2

e|-----------------
B|--------------------------|
G|-------------------------|
D|-------------------------|
A|-7-7-7-7-7-7-8-8-8-8-8-8-|
E|-0-0-0-0-0-0-0-0-0-0-0-0-|

e|-----------------
B|-------------------------------------------|
G|------------------------------------------|
D|---------------5/4---5/4------------------|
A|-4-4-2-4-2-4-x-3/2-x-3/2-4-4-2-4-2-4-2-4--|
E|-2-2-0-2-0-2-x-----x-----2-2-0-2-0-2-0-2--|

e|-----------------
B|---------------------------------------------|
G|-----------------------------------------8--|
D|-------------------------------------7-8----|
A|-7-7-7-7-7-7-8-8-8-8-8-8-9-9-9-9-9-9--------|
E|-0-0-0-0-0-0-0-0-0-0-0-0-0-0-0-0-0-0--------|
     [palm muted--------------------------------|

e|-----------------
B|------------------------------------|
G|-7b^8r7-4--------------------------|
D|--------4-4-4-4-4-4-4-4-4-4-4-4----|
A|-5b^6r5-2-0-2-2-2-0-2-2-2-0-2-0----|
E|-----------------------------------| x4
              [palm muted--------------|

---

Guitar 2 (delay)
e|-----------------
B|----------------------------------|
G|-------7---7-------7---7-------7-|
D|-9---9-------9---9-------9---9---|
A|---------------------------------|
E|---------------------------------| x4

e|-----------------
B|------------------------------------|
G|-7b^8r7-4--------------------------|
D|--------4-4-4-4-4-4-4-4-4-4-4-4----|
A|-5b^6r5-2-0-2-2-2-0-2-2-2-0-2-0----|
E|-----------------------------------| x4
              [palm muted--------------|

---

e|-----------------
B|--------------------------------------------------------------|
G|-7-7-7-7-7-7-7-7-7-7-7-7-14-14-14-14-14-14-14-14-14-14-14-14-|
D|-------------------------------------------------------------|
A|-5-5-5-5-5-5-5-5-5-5-5-5-12-12-12-12-12-12-12-12-12-12-12-12-|
E|-------------------------------------------------------------|

---

Guitar 2 (delay)
e|-----------------
B|----------------------------------|
G|-------7---7-------7---7-------7-|
D|-9---9-------9---9-------9---9---|
A|---------------------------------|
E|---------------------------------| x4

e|-----------------
B|------------------------------------|
G|-7b^8r7-4--------------------------|
D|--------4-4-4-4-4-4-4-4-4-4-4-4----|
A|-5b^6r5-2-0-2-2-2-0-2-2-2-0-2-0----|
E|-----------------------------------| x4
              [palm muted--------------|

---

e|-----------------
B|--------------------------------------------------------------|
G|-7-7-7-7-7-7-7-7-7-7-7-7-14-14-14-14-14-14-14-14-14-14-14-14-|
D|-------------------------------------------------------------|
A|-5-5-5-5-5-5-5-5-5-5-5-5-12-12-12-12-12-12-12-12-12-12-12-12-|
E|-------------------------------------------------------------|

e|-----------------
B|-------------------------------------------|
G|------------------------------------------|
D|---------------5/4---5/4------------------|
A|-4-4-2-4-2-4-x-3/2-x-3/2-4-4-2-4-2-4-2-4--|
E|-2-2-0-2-0-2-x-----x-----2-2-0-2-0-2-0-2--| x2

e|-----------------
B|---------------------------------------------|
G|-----------------------------------------8--|
D|-------------------------------------7-8----|
A|-7-7-7-7-7-7-8-8-8-8-8-8-9-9-9-9-9-9--------|
E|-0-0-0-0-0-0-0-0-0-0-0-0-0-0-0-0-0-0--------|
     [palm muted--------------------------------|

e|-----------------
B|------------------------------------|
G|-7b^8r7-4--------------------------|
D|--------4-4-4-4-4-4-4-4-4-4-4-4----|
A|-5b^6r5-2-0-2-2-2-0-2-2-2-0-2-0----|
E|-----------------------------------| x4
              [palm muted--------------|

e|-----------------
B|--------------------------|
G|------------------7-8-9--|
D|-2-2--2-2--2--2-2--------|
A|-2-2--2-2--2--2-2-5-6-7--|
E|-0-0--0-0--0--0-0--------| x4

e|-----------------
B|--------------------------------------------|
G|------------------7-8-9-----5-----7--------|
D|-2-2--2-2--2--2-2--------5--5--7--7--7-6-5-|
A|-3-3--3-3--3--3-3-5-6-7--5--3--7--5--5-4-3-|
E|-0-0--0-0--0--0-0--------3-----5-----------|

e|-----------------
B|--------------------------|
G|------------------7-8-9--|
D|-2-2--2-2--2--2-2--------|
A|-2-2--2-2--2--2-2-5-6-7--|
E|-0-0--0-0--0--0-0--------| x2

e|-----------------
B|---------------------------------------------------------|
G|------------------7-8-9-----5-----7---------------------|
D|-2-2--2-2--2--2-2--------5--5--7--7--7-6-5--5-4-3--2--5-|
A|-3-3--3-3--3--3-3-5-6-7--5--3--7--5--5-4-3--3-2-1--0--3-|
E|-0-0--0-0--0--0-0--------3-----5------------------------|

e|
B|-----
G|----
D|-4--
A|-2--
E|----

Guitar 2 (clean)
e|2----2-----------------2---------------2--|
B|--3----3------3p2--------3--2-2h3p2------3--|
G|-4----4----4-----4------4---------4-----4--|
D|------4--4------------4---------------4----|
A|--------------------2---------------2------|
E|-------------------------------------------|

Guitar 3 (lead)
e|-----------------
B|------7-----7---------7--------------|
G|-7/9---9-7---9---7/9---9/6-9-7/6----|
D|---------------------------------9--|
A|------------------------------------|
E|------------------------------------| x2

Guitar 2 (clean)
Chords- D A Bm

Guitar 3
e|-----------------
B|------7-----7/10~------7----------|
G|-7/9---9-7--------7/9---9-7/6----|
D|------------------------------9--|
A|---------------------------------|
E|---------------------------------|

Guitar 2 (clean)
Chords- Bm A E

(then a lot of solos and harmonies from about 4-30 to about 8-00 in the song)

e|-----------------
B|---------------------------------------------|
G|-----------------------------------------8--|
D|-------------------------------------7-8----|
A|-7-7-7-7-7-7-8-8-8-8-8-8-9-9-9-9-9-9--------|
E|-0-0-0-0-0-0-0-0-0-0-0-0-0-0-0-0-0-0--------|
     [palm muted--------------------------------|

(B feedback in background)
e|-----------------
B|------------------------------------|
G|-7b^8r7-4--------------------------|
D|--------4-4-4-4-4-4-4-4-4-4-4-4----|
A|-5b^6r5-2-0-2-2-2-0-2-2-2-0-2-0----|
E|-----------------------------------| x4
              [palm muted--------------|

e|-----------------
B|--------------------------------------------------------------|
G|-7-7-7-7-7-7-7-7-7-7-7-7-14-14-14-14-14-14-14-14-14-14-14-14-|
D|-------------------------------------------------------------|
A|-5-5-5-5-5-5-5-5-5-5-5-5-12-12-12-12-12-12-12-12-12-12-12-12-|
E|-------------------------------------------------------------|

e|-----------------
B|-------------------|
G|------------------|
D|------------------|
A|-8-7---5-----5----|
E|-----7---7-6---5--| x4
^ last two times harmoize octave up

e|-----------------
B|--------------------|
G|-10-9---7-----7----|
D|------9---9-8---7--|
A|-------------------|
E|-------------------| x2

e|-----------------
B|--------|
G|-10-9--|
D|-10-9--|
A|-8--7--|
E|-8--7--| x4 (drum fills, hold second time)

e|-----------------
B|-------------------|
G|------------------|
D|------------------|
A|-8-7---5-----5----|
E|-----7---7-6---5--| x3

e|-----------------
B|--------------------|
G|-10-9---7-----7----|
D|------9---9-8---7--|
A|-------------------|
E|-------------------| x3

e|-----------------
B|----------------------------|
G|-10-9---7------------------|
D|-10-9-9-7-8-7-5-3~-----2-2-|
A|-8--7-9-5-8-7-5-3~-----2-2-|
E|------7---6-5-3-1~-----0-0-|

e|-----------------
B|---------------------------------------|
G|-6-6-4-6-4-6-----------6-6-4-6-4-6----|
D|-6-6-4-6-4-6-5-4-x-5-4-6-6-4-6-4-6----|
A|-4-4-2-4-2-4-5-4-x-5-4-4-4-2-4-2-4----|
E|-4-4-2-4-2-4-3-2-x-3-2-4-4-2-4-2-4----| x2

e|-----------------
B|-------------------------------|
G|-6-6-4-6-4-6------------------|
D|-6-6-4-6-4-6-5-4---4-3---3-2--|
A|-4-4-2-4-2-4-5-4-x-4-3-x-3-2--|
E|-4-4-2-4-2-4-3-2-x-2-1-x-1-0--| repeat until end, fade out
Composição de James Hetfield / Kirk Hammett / Lars Ulrich / Robert Trujillo
Colaboração e revisão:
  • joao paulo
19.652 exibições
    • ½ Tom
    • A
    • Bb
    • B
    • C
    • Db
    • D
    • Eb
    • E
    • F
    • F#
    • G
    • Ab
  • Adicionar à lista

    0 comentários

    Ver todos os comentários

    Conseguiu tocar?

    4 Tocaram 0 Ainda não

    Grave um vídeo tocando Suicide And Redemption e nos envie!

    00:00 / 00:00
    outros vídeos desta música
    repetir qualidade Automático
    Outros vídeos desta música
    00:00 / 00:00
    Automático

    Cifra Club Pro

    Aproveite o Cifra Club com benefícios exclusivos e sem anúncios
    Cifra Club Pro
    Aproveite o Cifra Club com benefícios exclusivos e sem anúncios
    OK