Cifra Club

Aprenda

That Was Just Your Life

Metallica

Cifra: Principal (violão e guitarra)
tom: C
Violão - James h.
E|-------------------------------------------------------------------|
B|-------------------------------------------------------------------|
G|--------0-----------------------0----------------------------------|  (6x)
D|-----2-----2----------3-------2---2-------3------------------------|
A|---1---------------1--------1-----------1--------------------------|
E|-0--------------0---------0-----------0----------------------------|

Guitarra - Kirk h.
E|-------------------------------------------------------------------|
B|-------------------------------------------------------------------|
G|---9---9---9--9--9~------------------------------------------------|  (4x)
D|---10--10--9--8----------------------------------------------------|
A|-------------------------------------------------------------------|
E|-------------------------------------------------------------------|


       | PM    |                  | PM    |
E|-------------------------------------------------------------------|
B|-------------------------------------------------------------------|
G|--------------------3--------------------------3-------------------|
D|--2---2-2-2-2-----2-3-3-----2----2-2-2-2-----2-3-3-----------------|  (4x)
A|--2---2-2-2-2-----2-1-3-----2----2-2-2-2-----2-1-3-----------------|
E|--0---0-0-0-0-----0---1-----0----0-0-0-0-----0---1-----------------|

E|-------------------------------------------------------------------|
B|-------------------------------------------------------------------|
G|---------------3-3-3-3---------------------------------------------| 
D|-2-------------3-3-3-3--3--3--3--5---------------------------------| (2x)
A|-2-----7-------1-1-1-1--3--3--3--5---------------------------------|
E|-0- /6---6\-------------1--1--1--3---------------------------------|

E|-------------------------------------------------------------------|
B|-------------------------------------------------------------------|
G|-----------------------3-------------------------------------------|
D|-2----------2----------3--3----------------------------------------| (2x)
A|-2------7---2------7---1--3----------------------------------------|
E|-0---/6-----0---/6--------1----------------------------------------|

E|-------------------------------------------------------------------|
B|-------------------------------------------------------------------|
G|-------------------------------------------------------------------|
D|-------------------------------------------------------------------|
A|------------7-----------------------------7------------------------|
E|---000--5-6----6-5-6-------------000--5-6----6-5-6-----------------| 
  PM|---|                       PM|---|
                                                                            (4x)
E|-------------------------------------------------------------------|
B|-------------------------------------------------------------------|
G|-------------------------------------------------------------------|
D|-------------------------------------------------------------------|
A|------------7-----------------------------2-------------------------|
E|---000--5-6----6-5-6--------5-3-5-6-5-3-2--0---------------------------|
  PM|---|

E|------------------------------------------------------------------|
B|------------------------------------------------------------------|
G|------------------------------------------------3-----------------|      (2x)
D|------------------------------------------------3--------3--------|
A|---------7~------------7~------------7~---------1--------3--------|
E|---0-5-6---------0-5-6---------0-5-6---------------------1--------|

Riff - Principal Repete(2x)

E|-------------------------------------------------------------------|
B|-------------------------------------------------------------------|
G|-------------------------------------------------------------------|
D|-------------------------------------------------------------------|
A|------------7-----------------------------7------------------------|
E|---000--5-6----6-5-6-------------000--5-6----6-5-6-----------------| 
  PM|---|                       PM|---|
                                                                            
E|-------------------------------------------------------------------|
B|-------------------------------------------------------------------|
G|-------------------------------------------------------------------|
D|-------------------------------------------------------------------|
A|------------7----------------0---0-1-0-----------------------------|
E|---000--5-6----6-5-6-----------3-------3--2--0---------------------|
  PM|---|                       PM|---|
E|-------------------------------------------------------------------|
B|-------------------------------------------------------------------|
G|-------------------------------------------------------------------|
D|-------------------------------------------------------------------|
A|------------7-----------------------------7------------------------|
E|---000--5-6----6-5-6-------------000--5-6----6-5-6-----------------| 
  PM|---|                       PM|---|
                                                                            
E|-------------------------------------------------------------------|
B|-------------------------------------------------------------------|
G|-----------------------------3-------------------------------------|
D|-----------------------------3--------3----------------------------|
A|------------7----------------1--------3----------------------------|
E|---000--5-6----6-5-6-----------0-0-0--1-0-0-0----------------------|
  PM|---|                        PM|---|  PM|--|  

E|------------------------------------------------------------------|
B|------------------------------------------------------------------|
G|------------------------------------------------3-----------------|      (1x)
D|------------------------------------------------3--------3--------|
A|---------7~------------7~------------7~---------1--------3--------|
E|---0-5-6---------0-5-6---------0-5-6---------------------1--------|
   
E|-------------------------------------------------------------------|
B|-------------------------------------------------------------------|
G|-------------------------------------------------------------------|   (3x)
D|--2-2--2--2--2-2-2--2--2--2-2-2--2--2--2---------------------------|
A|--2-2--2--2--2-2-2--2--2--2-2-2--2--2--2---0---0-1-0---------------|
E|--0-0--0--0--0-0-0--0--0--0-0-0--0--0--0-----3-------3-2-0---------|
  PM|-------------------------------------|

E|---------------------|    |-------------------|
B|---------------------|    |-------------------|
G|---------------------|    |-------------------|
D|------2-2------------|    |-x-x--2---3-3------|
A|------2-2---3-3------|    |-x-x--2---3-3------|
E|------0-0---1-1------|    |-x-x--0---1-1------|
     PM|---|                      PM|-|

E|-------------------|    |-----------------------|
B|-------------------|    |-----------------------|
G|-------------------|    |---5-5-----------------|
D|-------2-----------|    |---5-5-------3-3-------|
A|-------2--3-3------|    |---3-3-------3-3-------|
E|-------0--1-1------|    |-------0--0--1-1--0--0-|

Refrão
E|---------------------------------------------------------------|
B|---------------------------------------------------------------|
G|---------------------------------------------------------------|
D|-9-9-9-9-9-----------------------------------------------------|
A|-7-7-7-7-7--8-8-7-7-7-7-7-7-5-5-3-3-3-3-3-3-3-3--3--2--2--2----|
E|------------6-6-5-5-5-5-5-5-3-3-1-1-1-1-1-1-1-1--1--0--0--0----|

E|---------------------------------------------------------------------|
B|---------------------------------------------------------------------|
G|-----------------------------------------------------------5--5--5---|
D|-9-9-9-9-9-9-----------------------------------------------5--5--5---|
A|-7-7-7-7-7-7-8-8-7-7-7-7-7-7-5-5-3-3-3-3-3-3-3-3-3---3--2--3--3--3---|
E|-------------6-6-5-5-5-5-5-5-3-3-1-1-1-1-1-1-1-1-3---1--0--0--0--0---|

E|------------------------------------------------------------------|
B|------------------------------------------------------------------|
G|--------------------------------------------------------7--7--7---|
D|-9-9-9-9-9-9--------------------------------------------7--7--7---|
A|-7-7-7-7-7-7-8-8-7-7-7-7-7-7-5-5-3-3-3-3-3-3-3-3--3--2--5--5--5---|
E|-------------6-6-5-5-5-5-5-5-3-3-1-1-1-1-1-1-1-1--1--0--0--0--0---|

E|---------------------------------------------------|
B|---------------------------------------------------|
G|---------------------------------------------------|
D|-9-9-9-9-9-9---------------------------------------|
A|-7-7-7-7-7-7-8-8-7-7-7-7-7-7-5-5-3-3-3-3-3-3-3-3---|
E|-------------6-6-5-5-5-5-5-5-3-3-1-1-1-1-1-1-1-1---|

Volta pro Riff Principal e depois refrão.

Riff pré-solo

James H.
E|-------------------------------------|
B|-------------------------------------|
G|-------------------------------------|      (7x)
D|-------------------------------------|
A|--------------8-8--7~---8-7--6-------|
E|---0-0-0--0-0---------6--------------|
     PM|-----|

Kirk H.
E|-------------------------------------|
B|-------------------------------------|
G|-------------------------------------|      (7x)
D|--------------7-7--6----7-6----------|
A|----------------------5-----5--------|
E|---0-0-0--0-0------------------------|
     PM|-----|

E|--------------------------------------------------|
B|--------------------------------------------------|
G|--------------------------------------------------|      
D|--------------------------------------------------|
A|--------------------------------------------------|
E|-0-0-0---0-0-0-0-0-0--0-0-0---0-0-0-0-0-0---0-0-0-|


Solo:
E|-------------------------------------------------------|
B|-17-15-12-17-15-12-17-15-12-17-15-12-17-15-12-17-15-12-|
G|-------------------------------------------------------|   (2x)
D|-------------------------------------------------------|
A|-------------------------------------------------------|
E|-------------------------------------------------------|

E|---------------------------------17b19-------------------17b19-12-------------------------------|
B|-17b19-17b19---17p15---------15---------17p15---------15---------15-12--12----------------------|
G|--------------------16-14-16-----------------16-14-16-----------------15---14-12-12-------------|
D|--------------------------------------------------------------------------------14--14---12-----|
A|--------------------------------------------------------------------------------------------15-14
E|------------------------------------------------------------------------------------------------|

E|---------------------------------|
B|---------------------------------|
G|-4p0h4p0h5p0h5p0h4p0h4p0h5p0h5p--|  (2x)
D|---------------------------------|
A|---------------------------------|
E|---------------------------------|

E|---------------------------------------------|
B|---------------------------------------------|
G|-0h07p0h7p0h5p0h5p0h4p0h4p0h5----------------|
D|------------------------------0(whammy dive)-|
A|---------------------------------------------|
E|---------------------------------------------|

E|----------------------------------------------------|
B|----------------------------------------------------|
G|----10h12p10----10h12p10----10p12h10-----10h12p10---|
D|--12---------12----------12-----------12------------|
A|----------------------------------------------------|
E|----------------------------------------------------|

E|--------------------------------|
B|--------------------------------|
G|--------------------------------|
D|---------12---------------------|
A|---14-15----14--12--------------|
E|----------------12--------------|
Composição de James Hetfield / Kirk Hammett / Lars Ulrich / Robert Trujillo
Colaboração e revisão:
  • Thiago Carvalho
  • Rafael Arthur
  • Victor Hugo
25.308 exibições
    • ½ Tom
    • A
    • Bb
    • B
    • C
    • Db
    • D
    • Eb
    • E
    • F
    • F#
    • G
    • Ab
  • Adicionar à lista

    0 comentários

    Ver todos os comentários

    Conseguiu tocar?

    19 Tocaram 0 Ainda não

    Grave um vídeo tocando That Was Just Your Life e nos envie!

    00:00 / 00:00
    outros vídeos desta música
    repetir qualidade Automático
    Outros vídeos desta música
    00:00 / 00:00
    Automático

    Cifra Club Pro

    Aproveite o Cifra Club com benefícios exclusivos e sem anúncios
    Cifra Club Pro
    Aproveite o Cifra Club com benefícios exclusivos e sem anúncios
    OK