Cifra Club

Aprenda

The Call Of Ktulu

Metallica

Cifra: Principal (violão e guitarra)
Tom: D
Music by James Hetfield, Lars Ulrich, Cliff Burton, and Dave Mustaine

          DmV               Dmadd2/A               Bb/D                Bbsus4
      x x 0 7 6 5          x x 7 x 6 5          x x 0 7 6 6          x x 8 9 6 6

          C/D                 CVIII               Amadd2              Amadd2/Eb
      x x 0 9 8 8         x x 10 9 8 8          x 0 7 5 0 0          x 6 7 5 0 0

          Dm                Bb/Dopen                Dm6                  Dm7
      x x 0 2 3 1          x x 0 3 3 1          x x 0 4 3 1          x x 0 5 3 5

          D5            Bb/Dopen(type 2)           Bm/D                Csus2/D
      x x 0 2 x x          x x 0 3 x x          x x 0 4 x x          x x 0 5 x x

          Em
      x x x 4 5 3

Gtr I (E A D G B E) - 'James Clean w/compression'
Gtr II (E A D G B E) - 'James w/distorion I'
Gtr III (E A D G B E) - 'James w/distortion II'
Gtr IV (E A D G B E) - 'Kirk w/distortion'
Gtr V (E A D G B E) - 'James w/distortion III'
Gtr VI (E A D G B E) - 'James Acoustic clean tone w/reverb'

   Intro
    Moderately Q=140
    $
    DmV     Dmadd2/A  DmV     Dmadd2/A  Bb/D    Bbsus4    Bb/D    Bbsus4
   4/4
    Gtr I
    E E E E E E E E   E E E E E E E E   E E E E E E E E   E E E E E E E E
||----5---------5---|---5---------5---|---6---------6---|---6---------6----|
||o-------6---5---6-|-------6---5---6-|-------6-------6-|-------6-------6--|
||------7-----------|-----7-----------|-----7-----9-----|-----7-----9------|
||--0-------7-------|-0-------7-------|-0-------8-------|-0-------8--------|
||o-----------------|-----------------|-----------------|------------------|
||------------------|-----------------|-----------------|------------------|


                                       1.
  C/D     CVIII      C/D     CVIII      DmV
  E E E E  E E E E   E E E E  E E E E   E E E E E E E E
|---8----------8---|---8----------8---|---5---------5---|
|-------8--------8-|-------8--------8-|-------6---5---6-|
|-----9------9-----|-----9------9-----|-----7-----------|
|-0-------10-------|-0-------10-------|-0-------7-------|
|------------------|------------------|-----------------|
|------------------|------------------|-----------------|


                      2.
         To Coda
  Dmadd2/A            DmV     Dmadd2/A  DmV
  E E E E E E E E     E E E E E E E E   W
|---5---------5----||---5---------5---|------||
|-------6---5---6-o||-------6---5---5-|-6----||
|-----7------------||-----7-----------|------||
|-0-------7--------||-0-------7-------|-0----||
|-----------------o||-----------------|------||
|------------------||-----------------|------||


    Amadd2            Amadd2/Eb
    E E E E E E E E   E E E E E E E E  4x
||----------0-------|---------0--------||
||o-------0---0-----|-------0---0-----o||
||------5-------5---|-----5-------5----||
||----7-------------|---7-----------7--||
||o-0-------------7-|-6---------------o||
||------------------|------------------||


      Dm      Bb/Dopen  Dm6     Dm7
      E E E E E E E E   E E E E E E E E  4x
|-||--------1-------1-|-------1-------5--||
|-||o-----3-------3---|-----3-------3---o||
|-||----2-------3-----|---4-------5------||
|-||--0-------0-------|-0-------0--------||
|-||o-----------------|-----------------o||
|-||------------------|------------------||


    Amadd2              Amadd2/Eb
    Gtr I
    E   E E E E E E E   E  E E E E E  E   E  4x
||------------0-------|----------0-----------||
||o---------0---0-----|--------0---0--------o||
||--------5-------5---|------5--------5------||
||------7-------------|----7--------------7--||
||o-0---------------7-|-6-------------------o||
||--------------------|----------------------||
|
|   Gtr II
|   <                   <
|   W                   W                    4x
||--------------------|----------------------||
||o-------------------|---------------------o||
||--------------------|----------------------||
||--7-----------------|-6--------------------||
||o-------------------|---------------------o||
||--------------------|----------------------||
|
|   Gtr III
|   H..             E   H.           +Q      4x
||--------------------|----------------------||
||o-------------------|---------------------o||
||--------------------|----------------------||
||--------------------|----------------------||
||o-0---------------7-|-6------------(6)---o||
||--------------------|----------------------||


      Dm      Bb/Dopen  Dm6     Dm7
      E E E E E E E E   E E E E E E E E  3x
|-||--------1-------1-|-------1-------5--||
|-||o-----3-------3---|-----3-------3---o||
|-||----2-------3-----|---4-------5------||
|-||--0-------0-------|-0-------0--------||
|-||o-----------------|-----------------o||
|-||------------------|------------------||
|
|     <       <         <
|     H       H         W                3x
|-||------------------|------------------||
|-||o-----------------|-----------------o||
|-||------------------|------------------||
|-||--0-------2-------|-3----------------||
|-||o-----------------|-----------------o||
|-||------------------|------------------||
|
|     W                 W                3x
|-||------------------|------------------||
|-||o-----------------|-----------------o||
|-||------------------|------------------||
|-||------------------|-0----------------||
|-||o-----------------|-----------------o||
|-||------------------|------------------||


  Dm      Bb/Dopen  Dm6     Dm7           Amadd2
  Gtr I
  E E E E E E E E   E E E E E E  E  E     W
|-------1-------1-|-------1---------5-||------------------|
|-----3-------3---|-----3--------3----||o-----------------|
|---2-------3-----|---4-------5-------||------------------|
|-0-------0-------|-0-------0---------||------------------|
|-----------------|-------------------||o-----------------|
|-----------------|-------------------||------------------|
|
| Gtr II                                  Gtr IV
| <       <         <
|                                         PM------------|
| H       H         W                     E E E E E E E E
|-----------------|-------------------||----------0-------|
|-----------------|-------------------||o-------0---0-----|
|-----------------|-------------------||------5-------5---|
|-0-------2-------|-3-----------------||----7-------------|
|-----------------|-------------------||o-0-------------7-|
|-----------------|-------------------||------------------|
|
|                                         Gtrs II, III
| <
|                                         PM--|
| E E E E E E E E   E E E E E E  Q        E E E E E E E E
|-----------------|-------------------||------------------|
|-----------------|-------------------||o-----------------|
|-----------------|-------------------||------------------|
|-0-0-0-0-0-0-0-0-|-0-0-0-0-0-0-------||--7-7-7-5-7-5-7-9-|
|-----------------|-------------12---||o-0-0-0-0-0-0-0-7-|
|-----------------|-------------------||------------------|


  Amadd2/Eb          Amadd2            Amadd2/Eb
  Gtr IV
  PM-------------------------------------------------|
  E E E E E E E  E   E E E E E E E E   E E E E E E E  E
|---------0--------|---------0-------|---------0--------|
|-------0---0------|-------0---0-----|-------0---0------|
|-----5-------5----|-----5-------5---|-----5-------5----|
|---7------------7-|---7-------------|---7------------7-|
|-6----------------|-0-------------7-|-6----------------|
|------------------|-----------------|------------------|
|
| Gtrs II, III
|   PM----|          PM--|               PM----|
| E E E E E E E  E   E E E E E E E E   E E E E E E E  E
|------------------|-----------------|------------------|
|------------------|-----------------|------------------|
|------------------|-----------------|------------------|
|-8-8-8-8-8-9-9s10-|-7-7-7-5-7-5-7-9-|-8-8-8-8-8-9-9s10-|
|-6-6-6-6-6-7-7s=9-|-0-0-0-0-0-0-0-7-|-6-6-6-6-6-7-7s=9-|
|------------------|-----------------|------------------|


  Amadd2            Amadd2/Eb          Amadd2            Amadd2/Eb
  PM-------------------------------------------------------------------|
  E E E E E E E E   E E E E E E E  E   E E E E E E E E   E E E E E E E  E
|---------0-------|---------0--------|---------0-------|---------0--------||
|-------0---0-----|-------0---0------|-------0---0-----|-------0---0------||
|-----5-------5---|-----5-------5----|-----5-------5---|-----5-------5----||
|---7-------------|---7------------7-|---7-------------|---7------------7-||
|-0-------------7-|-6----------------|-0-------------7-|-6----------------||
|-----------------|------------------|-----------------|------------------||
|
| PM--|               PM----|          PM--|               PM----|
| E E E E E E E E   E E E E E E E  E   E E E E E E E E   E E E E E E E  E
|-----------------|------------------|-----------------|------------------||
|-----------------|------------------|-----------------|------------------||
|-----------------|------------------|-----------------|------------------||
|-7-7-7-5-7-5-7-9-|-8-8-8-8-8-9-9s10-|-7-7-7-5-7-5-7-9-|-8-8-8-8-8-9-9s10-||
|-0-0-0-0-0-0-0-7-|-6-6-6-6-6-7-7s=9-|-0-0-0-0-0-0-0-7-|-6-6-6-6-6-7-7s=9-||
|-----------------|------------------|-----------------|------------------||


  Dm      Bb/Dopen  Dm6     Dm7       Dm      Bb/Dopen  Dm6     Dm7
  PM------------------------------------------------------------------|
  E E E E E E E E   E E E E E E E E   E E E E E E E E   E E E E E E E E
|-------1-------1-|-------1-------5-|-------1-------1-|-------1-------5-|
|-----3-------3---|-----3-------3---|-----3-------3---|-----3-------3---|
|---2-------3-----|---4-------5-----|---2-------3-----|---4-------5-----|
|-0-------0-------|-0-------0-------|-0-------0-------|-0-------0-------|
|-----------------|-----------------|-----------------|-----------------|
|-----------------|-----------------|-----------------|-----------------|
|
| PM------------------------------------------------------------------|
| E E E E E E E E   E E E E E E E E   E E E E E E E E   E E E E E E E E
|-----------------|-----------------|-----------------|-----------------|
|-----------------|-----------------|-----------------|-----------------|
|-2-2-2-2-3-3-3-3-|-4-4-4-4-5-5-5-5-|-2-2-2-2-3-3-3-3-|-4-4-4-4-5-5-5-5-|
|-0-0-0-0-0-0-0-0-|-0-0-0-0-0-0-0-0-|-0-0-0-0-0-0-0-0-|-0-0-0-0-0-0-0-0-|
|-----------------|-----------------|-----------------|-----------------|
|-----------------|-----------------|-----------------|-----------------|


  Dm      Bb/Dopen  Dm6     Dm7       Dm      Bb/Dopen  Dm6     Dm7
  PM------------------------------------------------------------------|
  E E E E E E E E   E E E E E E E E   E E E E E E E E   E E E E E E E E
|-------1-------1-|-------1-------5-|-------1-------1-|-------1-------5--||
|-----3-------3---|-----3-------3---|-----3-------3---|-----3-------3---o||
|---2-------3-----|---4-------5-----|---2-------3-----|---4-------5------||
|-0-------0-------|-0-------0-------|-0-------0-------|-0-------0--------||
|-----------------|-----------------|-----------------|-----------------o||
|-----------------|-----------------|-----------------|------------------||
|
| PM------------------------------------------------------------------|
| E E E E E E E E   E E E E E E E E   E E E E E E E E   E E E E E E E E
|-----------------|-----------------|-----------------|------------------||
|-----------------|-----------------|-----------------|-----------------o||
|-2-2-2-2-3-3-3-3-|-4-4-4-4-5-5-5-5-|-2-2-2-2-3-3-3-3-|-4-4-4-4-5-5-5-5--||
|-0-0-0-0-0-0-0-0-|-0-0-0-0-0-0-0-0-|-0-0-0-0-0-0-0-0-|-0-0-0-0-0-0-0-0--||
|-----------------|-----------------|-----------------|-----------------o||
|-----------------|-----------------|-----------------|------------------||


    Gtrs II, III
    PM--|               PM----|
    E E E E E E E E   E E E E E E E  E  4x
||------------------|-------------------||
||o-----------------|------------------o||
||------------------|-------------------||
||--7-7-7-5-7-5-7-9-|-8-8-8-8-8-9-9s10--||
||o-0-0-0-0-0-0-0-7-|-6-6-6-6-6-7-7s=9-o||
||------------------|-------------------||


      D5      Bb/Dopen(tBm/D2)  Csus2/D
      PM------------------------------|
      E E E E E E E E   E E E E E E E E  4x
|-||------------------|------------------||
|-||o-----------------|-----------------o||
|-||--2-2-2-2-3-3-3-3-|-4-4-4-4-5-5-5-5--||
|-||--0-0-0-0-0-0-0-0-|-0-0-0-0-0-0-0-0--||
|-||o-----------------|-----------------o||
|-||------------------|------------------||


    PM--|               PM----|
    E E E E E E E E   E E E E E E E  E  4x
||------------------|-------------------||
||o-----------------|------------------o||
||------------------|-------------------||
||--7-7-7-5-7-5-7-9-|-8-8-8-8-8-9-9s10--||
||o-0-0-0-0-0-0-0-7-|-6-6-6-6-6-7-7s=9-o||
||------------------|-------------------||


      D5      Bb/Dopen(tBm/D2)  Csus2/D
      PM------------------------------|
      E E E E E E E E   E E E E E E E E  4x
|-||------------------|------------------||
|-||o-----------------|-----------------o||
|-||--2-2-2-2-3-3-3-3-|-4-4-4-4-5-5-5-5--||
|-||--0-0-0-0-0-0-0-0-|-0-0-0-0-0-0-0-0--||
|-||o-----------------|-----------------o||
|-||------------------|------------------||


   Interlude
    Gtrs II, III
      PM--|   PM        PM--|           PM--|   PM        PM--|
                              |-3-|                             |-3-|
    E E E E E E E E   E E E E Q Q Q   E E E E E E E E   E E E E Q Q Q
||------------------|---------------|-----------------|-----------------||
||o-----------------|---------------|-----------------|----------------o||
||------------------|---------------|-----------------|-----------------||
||------------------|---------------|-----------------|-----------------||
||o-0-------0---2-3-|-0-------0-2-3-|-0-------0---2-3-|-5-------3-2----o||
||----0-0-0---0-----|---1-1-1-------|---2-2-2---0-----|---3-3-3-----3---||


    Gtr IV
    ~
            |---3---|             |-3-|
    Q   E E Q   Q   Q     Q   E E Q Q Q
||----------------------|---------------|
||o---------------------|---------------|
||--2---2-4-5---4---2---|-----2-4-5-4-2-|
||----------------------|-3-------------|
||o---------------------|---------------|
||----------------------|---------------|
|
|   Gtrs II, III
|     PM--|   PM            PM--|
|                                 |-3-|
|   E E E E E E   E   E   E E E E Q Q Q
||----------------------|---------------|
||o---------------------|---------------|
||----------------------|---------------|
||----------------------|---------------|
||o-0-------0-----2---3-|-0-------0-2-3-|
||----0-0-0---0---------|---1-1-1-------|


          |---3---|             |-3-|
  Q   E E Q   Q   Q     Q   E E Q Q Q
|---------------------|-----------------||
|---------------------|-----------3----o||
|-----2-4-5---4---2---|-----2-4-5---5---||
|-4-------------------|-5---------------||
|---------------------|----------------o||
|---------------------|-----------------||
|
|   PM--|   PM            PM--|
|                               |-3-|
| E E E E E E   E   E   E E E E Q Q Q
|---------------------|-----------------||
|---------------------|----------------o||
|---------------------|-----------------||
|---------------------|-----------------||
|-0-------0-----2---3-|-5-------3-2----o||
|---2-2-2---0---------|---3-3-3-----3---||


      ~~~                         ~~
                 |----3----|                 |--3--|
      Q    E  E  Q    Q    Q      Q    E  E  Q  Q  Q
||-----------------------------|---------------------|
||o----------------------------|---------------------|
||--/12---12-14-15---14---12---|------12-14-15-14-12-|
||-----------------------------|-13------------------|
||o----------------------------|---------------------|
||-----------------------------|---------------------|
|
|                  PM
|                                            |--3--|
|     E E  E  E  E E    E    E    E E  E  E  Q  Q  Q
||-----------------------------|---------------------|
||o----------------------------|---------------------|
||-----------------------------|---------------------|
||-----------------------------|---------------------|
||o---3----------3------5----6-|--3----------3--5--6-|
||------3--3--3----3-----------|----4--4--4----------|


   ~~                          ~~
              |----3----|                 |--3--|
   Q    E  E  Q    Q    Q      Q    E  E  Q  Q  Q
|---------------------------|-----------------------||
|---------------------------|---------------13-----o||
|------12-14-15---14---12---|------12-14-15----15---||
|-14------------------------|-15--------------------||
|---------------------------|----------------------o||
|---------------------------|-----------------------||
|
|               PM
|                                         |--3--|
|  E E  E  E  E E    E    E    E E  E  E  Q  Q  Q
|---------------------------|-----------------------||
|---------------------------|----------------------o||
|---------------------------|-----------------------||
|---------------------------|-----------------------||
|--3----------3------5----6-|--8----------6--5-----o||
|----5--5--5----5-----------|----6--6--6--------6---||


 Guitar Solo
  Gtr IV
                                                             ~~~~~~
                                     |-------3-------|                 |-----3-----|
   Q       Q       Q       Q         Q       Q       Q       Q        +E   +E      E
|---------------------------------|--------------------------------------------------|
|-20b22---20b22---20b22---20b22---|-20b22---20b22---20b22---20b22====(20)r(20)p===17-|
|---------------------------------|--------------------------------------------------|
|---------------------------------|--------------------------------------------------|
|---------------------------------|--------------------------------------------------|
|---------------------------------|--------------------------------------------------|
|
| Gtr III
|  PM-----|                               PM----------------|
|  E    E  E    E  E    E  E    E    E    E       E       E  E     E   E        E
|---------------------------------|--------------------------------------------------|
|---------------------------------|--------------------------------------------------|
|---------------------------------|--------------------------------------------------|
|--7----7--7----5--7----5--7----9-|--8----8-------8-------8--8-----9---9s======10----|
|--0----0--0----0--0----0--0----7-|--6----6-------6-------6--6-----7---7s=======9----|
|---------------------------------|--------------------------------------------------|


                                                   ~~~~~
   H           Q.        E       +Q     E     +E   Q       E  E
|-20b22-------20b22-----20b22r|=(20)---20b22-(20)-20b22---20-17-|
|-----------------------------|---------------------------------|
|-----------------------------|---------------------------------|
|-----------------------------|---------------------------------|
|-----------------------------|---------------------------------|
|-----------------------------|---------------------------------|
|
|  PM-----|                          PM-----------|
|  E    E E E  E    E E  E        E  E  E      E   E    E  E  E
|-----------------------------|---------------------------------|
|-----------------------------|---------------------------------|
|-----------------------------|---------------------------------|
|--7----7-7-5--7----5-7--9----|---8--8--8------8---8----9--9s10-|
|--0----0-0-0--0----0-0--7----|---6--6--6------6---6----7--7s=9-|
|-----------------------------|---------------------------------|


         |--3--|
   E     S  S  S  S     S  S  S  S     S  S  S  S     S  S  S
|-------17-------------17-------------17-------------17-------|
|-20b22----20p17-20b22----20p17-20b22----20p17-20b22----20p17-|
|-------------------------------------------------------------|
|-------------------------------------------------------------|
|-------------------------------------------------------------|
|-------------------------------------------------------------|
|
|  PM------------|
|  E     E        E        E     E        E     E        E
|-------------------------------------------------------------|
|-------------------------------------------------------------|
|-------------------------------------------------------------|
|--7-----7--------7--------5-----7--------5-----7--------9----|
|--0-----0--------0--------0-----0--------0-----0--------7----|
|-------------------------------------------------------------|


   S     S  S  S  S     S  S  S  S     S  S  S  S     S  S  S
|-------17-------------17-------------17-------------17-------|
|-20b22----20p17-20b22----20p17-20b22----20p17-20b22----20p17-|
|-------------------------------------------------------------|
|-------------------------------------------------------------|
|-------------------------------------------------------------|
|-------------------------------------------------------------|
|
|           PM------------------|
|  E        E     E        E     E        E     E        E
|-------------------------------------------------------------|
|-------------------------------------------------------------|
|-------------------------------------------------------------|
|--8--------8-----8--------8-----8--------9-----9s======10----|
|--6--------6-----6--------6-----6--------7-----7s=======9----|
|-------------------------------------------------------------|


   S  S  S  S  S  S  S  S  S  S  S  S  S  S  S  S
|-20-17-------------------------------------------|
|-------20-17----17-20-17-------------------------|
|-------------19----------19-17----17-19-17-------|
|-------------------------------19----------19-17-|
|-------------------------------------------------|
|-------------------------------------------------|
|
|  PM---------|
|  E     E     E     E     E     E     E     E
|-------------------------------------------------|
|-------------------------------------------------|
|-------------------------------------------------|
|--7-----7-----7-----5-----7-----5-----7-----9----|
|--0-----0-----0-----0-----0-----0-----0-----7----|
|-------------------------------------------------|


   S  S  S  S  S  S  S  S  S  S  S  S  Q       S  S S  S  S S  S  S S  S  S S  S  S S  S
|-------------------------------------------|-12-10-9----10-9-------9----------------------|
|-------------------------------------------|---------12------12-10---12-10-9-12-10-9------|
|-------------------------------------------|-----------------------------------------11---|
|----17-19-17-------------------------------|----------------------------------------------|
|-19----------19-17----17-19-17----17-------|----------------------------------------------|
|-------------------20----------20----17----|----------------------------------------------|
|
|        PM---------------|                    PM-----------------------------------|
|  E     E     E     E     E     E     E  E    E    E     E    E    E     E    E    E
|-------------------------------------------|----------------------------------------------|
|-------------------------------------------|----------------------------------------------|
|-------------------------------------------|--2----2-----2----2----3-----3----3----3------|
|--8-----8-----8-----8-----8-----9-----9s10-|--0----0-----0----0----0-----0----0----0------|
|--6-----6-----6-----6-----6-----7-----7s=9-|----------------------------------------------|
|-------------------------------------------|----------------------------------------------|


   S S  S S S  S S  S  S S  S  S S  S  S S
|------------------------------------------|
|-10-9------9------------------------------|
|------11-9---11-9----11-9-------9---------|
|------------------12------12-11---12-11-9-|
|------------------------------------------|
|------------------------------------------|
|
|  PM---------------------------------------
|  E    E   E    E     E    E    E     E
|------------------------------------------|
|------------------------------------------|
|--4----4---4----4-----5----5----5-----5---|
|--0----0---0----0-----0----0----0-----0---|
|------------------------------------------|
|------------------------------------------|


                                                                              ~
   S  S S  S  S S  S  S S  S  S S  S  S S  S    S S  S  S S  S  S S  S  S S S Q
|--------------------------------------------|--------------------------------------|
|--------------------------------------------|--------------------------------------|
|--------------------------------------------|--------------------------------------|
|-12-11-9----11-9-------9--------------------|--------------------------------------|
|---------12------12-11---12-11-9-12-11-9----|-11-9-------9-------------------------|
|-----------------------------------------12-|------12-10---12-10-9-12-10-9-x-4-----|
|
|-------------------------------------------------------------------------------|
|  E    E     E    E    E     E    E    E       E    E    E     E    E    E   E E
|--------------------------------------------|--------------------------------------|
|--------------------------------------------|--------------------------------------|
|--2----2-----2----2----3-----3----3----3----|--4----4----4-----4----5----5---5-5---|
|--0----0-----0----0----0-----0----0----0----|--0----0----0-----0----0----0---0-0---|
|--------------------------------------------|--------------------------------------|
|--------------------------------------------|--------------------------------------|


                                       T        T        T
  E S S S S S S S S S S S S E   Q      a Q      a Q      a Q
|-----------------------------|----------------------------------|
|-----------------------------|----------------------------------|
|-------------------------5-7-|-7b9---14p7b9---15p7b9---17p7b9---|
|-------------5-7p5---5-7-----|----------------------------------|
|-------5h6h7-------7---------|----------------------------------|
|-5-7h8-----------------------|----------------------------------|
|
| PM--------------------------------------------------------------
| E E   E   E   E   E   E   E   E   E    E   E    E   E    E   E
|-----------------------------|----------------------------------|
|-----------------------------|----------------------------------|
|-2-2---2---2---3---3---3---3-|-4---4----4---4----5---5----5---5-|
|-0-0---0---0---0---0---0---0-|-0---0----0---0----0---0----0---0-|
|-----------------------------|----------------------------------|
|-----------------------------|----------------------------------|


   T        T                              ~~
   a Q      a Q.      +Q.       H          Q.     +E
|-----------------------------|-------------------------|
|-----------------------------|-------------------------|
|-15p7b9---17p7b9r====(7)-----|-5tr7--------------------|
|-----------------------------|------------7------(7)/--|
|-----------------------------|-------------------------|
|-----------------------------|-------------------------|
|
|-------------------------------------------------|
|    E   E    E   E E  E  E E   E    E E E E  E E  E
|-----------------------------|-------------------------|
|-----------------------------|-------------------------|
|----2---2----2---2-3--3--3-3-|-4----4-4-4-5--5-5--5----|
|----0---0----0---0-0--0--0-0-|-0----0-0-0-0--0-0--0----|
|-----------------------------|-------------------------|
|-----------------------------|-------------------------|


   |---3---|  |---3---|  |---3---|  |---3---|    |---3---|  |---3---|  |---3---|  |---3----|
   E  E    E  E  E    E  E  E    E  E  E    E    E  E    E  E  E    E  E  E    E  E  E     E
|---------10S17-13--------------10S17-13------|---------10S17-13--------------10S17-13-------|
|----10--------------15----10--------------15-|----10--------------15----10---------------15-|
|-10--------------------10--------------------|-10--------------------10---------------------|
|---------------------------------------------|----------------------------------------------|
|---------------------------------------------|----------------------------------------------|
|---------------------------------------------|----------------------------------------------|
|
|  PM--------|                                        PM--------------|
|  E    E     E    E     E    E     E    E       E    E     E    E     E    E     E     E
|---------------------------------------------|----------------------------------------------|
|---------------------------------------------|----------------------------------------------|
|---------------------------------------------|----------------------------------------------|
|--7----7-----7----5-----7----5-----7----9----|--8----8-----8----8-----8----9-----9s===10----|
|--0----0-----0----0-----0----0-----0----7----|--6----6-----6----6-----6----7-----7s====9----|
|---------------------------------------------|----------------------------------------------|


   |---3---|  |---3---|  |---3---|  |---3---|    |---3---|  |---3---|
   E  E    E  E  E    E  E  E    E  E  E    E    E  E    E  E  E    E  H
|-17-13------17-13------17-13------17-13------|-17-13------17-13-----------------|
|---------15---------15---------15---------15-|---------15---------15-17---------|
|---------------------------------------------|----------------------------------|
|---------------------------------------------|----------------------------------|
|---------------------------------------------|----------------------------------|
|---------------------------------------------|----------------------------------|
|
|  PM--------|                                        PM--------------|
|  E    E     E    E     E    E     E    E       E    E     E    E     E E E  E
|---------------------------------------------|----------------------------------|
|---------------------------------------------|----------------------------------|
|---------------------------------------------|----------------------------------|
|--7----7-----7----5-----7----5-----7----9----|--8----8-----8----8-----8-9-9s10--|
|--0----0-----0----0-----0----0-----0----7----|--6----6-----6----6-----6-7-7s=9--|
|---------------------------------------------|----------------------------------|


   |-------3-------|       |-------3-------|
   Q       Q       Q       Q       Q       Q
|-20b22---20b22---20b22---20b22---20b22---20b22---|
|-------------------------------------------------|
|-------------------------------------------------|
|-------------------------------------------------|
|-------------------------------------------------|
|-------------------------------------------------|
|
|  PM-----------|
|  E    E       E       E  E    E       E       E
|-------------------------------------------------|
|-------------------------------------------------|
|-------------------------------------------------|
|--7----7-------7-------5--7----5-------7-------9-|
|--0----0-------0-------0--0----0-------0-------7-|
|-------------------------------------------------|


   |-------3-------|                        |---3---|  |---3---|  |---3---|  |---3---|
   Q       Q       Q       Q.        +E     E  E    E  E  E    E  E  E    E  E  E    E
|-20b22---20b22---20b22---20b22r====(20)-|-20-19---17-19-17------17-19---17-19-17-------|
|----------------------------------------|--------------------19--------------------19--|
|----------------------------------------|----------------------------------------------|
|----------------------------------------|----------------------------------------------|
|----------------------------------------|----------------------------------------------|
|----------------------------------------|----------------------------------------------|
|
|       PM----------------|                 PM--------|
|  E    E       E       E  E    E E   E     E    E     E    E     E    E     E    E
|----------------------------------------|----------------------------------------------|
|----------------------------------------|----------------------------------------------|
|----------------------------------------|----------------------------------------------|
|--8----8-------8-------8--8----9-9s=10--|--7----7-----7----5-----7----5-----7----9-----|
|--6----6-------6-------6--6----7-7s==9--|--0----0-----0----0-----0----0-----0----7-----|
|----------------------------------------|----------------------------------------------|


                                    ~~~
   |---3---|  |---3---|  |---3---|
   E  E    E  E  E    E  E  E    E  Q
|-17-19---17-19-17------19-17------17----|
|--------------------19---------19-------|
|----------------------------------------|
|----------------------------------------|
|----------------------------------------|
|----------------------------------------|
|
|       PM--------------|
|  E    E     E    E     E    E     E  E
|----------------------------------------|
|----------------------------------------|
|----------------------------------------|
|--8----8-----8----8-----8----9-----9s10-|
|--6----6-----6----6-----6----7-----7s=9-|
|----------------------------------------|


   |--3--|  |--3--|  |--3--|  |--3--|  |--3--|  |--3--|  |--3--|  |--3--|
   S  S  S  S  S  S  S  S  S  S  S  S  S  S  S  S  S  S  S  S  S  S  S  S
|-20p19p17-20p19p17-18p17p15-18p17p15-17p16p14-17p16p14-15p13p12-15p13p12-|
|-------------------------------------------------------------------------|
|-------------------------------------------------------------------------|
|-------------------------------------------------------------------------|
|-------------------------------------------------------------------------|
|-------------------------------------------------------------------------|
|
|  PM------------------------------------------------------------|
|  E        E        E        E        E        E        E        E
|-------------------------------------------------------------------------|
|-------------------------------------------------------------------------|
|--2--------2--------2--------2--------3--------3--------3--------3-------|
|--0--------0--------0--------0--------0--------0--------0--------0-------|
|-------------------------------------------------------------------------|
|-------------------------------------------------------------------------|


   |--3--|  |--3--|  |-3--|  |-3--|  |-3-|  |-3-| |-3-| |-3-|
   S  S  S  S  S  S  S  S S  S  S S  S S S  S S S S S S S S S
|-13p12p10-13p12p10-12p11p9-12p11p9-10p9p7-10p9p7-8p7p5-8p7p5-|
|-------------------------------------------------------------|
|-------------------------------------------------------------|
|-------------------------------------------------------------|
|-------------------------------------------------------------|
|-------------------------------------------------------------|
|
|  PM----------------------------------------------------------
|  E        E        E       E       E      E     E     E
|-------------------------------------------------------------|
|-------------------------------------------------------------|
|--4--------4--------4-------4-------5------5-----5-----5-----|
|--0--------0--------0-------0-------0------0-----0-----0-----|
|-------------------------------------------------------------|
|-------------------------------------------------------------|


  S S S S S S S S S S S S S S S S
|-8p5---5-8p5---------------------|
|-----8-------8p5---5-8p5---------|
|-----------------7-------7p5---5-|
|-----------------------------7---|
|---------------------------------|
|---------------------------------|
|
|-----------------------------|
| E   E   E   E   E   E   E   E
|---------------------------------|
|---------------------------------|
|-2---2---2---2---3---3---3---3---|
|-0---0---0---0---0---0---0---0---|
|---------------------------------|
|---------------------------------|


                                         T        T    T        T    T
                                                  |----6-----|  |----6-----|
  S S S S S S S S S S S S E E   S S S S  S S S S  S S  S S S S  S S  S S S S
|-----------------------------|----------------------------------------------|
|-----------------------------|----------------------------------------------|
|-7p5-------------------------|----------------------------------------------|
|-----7p5---5-7p5---5---------|----------------------------------------------|
|---------7-------7---7p5-----|----------------------------------------------|
|-------------------------8-5-|-8p5h8p5-10p8p5h8-10p8-10p8p5h8-10p8-10p8p5h8-|
|
| PM-------------------------------------------------------------------|
| E   E   E   E   E   E   E E   E   E    E   E    E      E      E      E
|-----------------------------|----------------------------------------------|
|-----------------------------|----------------------------------------------|
|-4---4---4---4---5---5---5-5-|-2---2----2---2----3------3------3------3-----|
|-0---0---0---0---0---0---0-0-|-0---0----0---0----0------0------0------0-----|
|-----------------------------|----------------------------------------------|
|-----------------------------|----------------------------------------------|


                    T     T          T     T
                    |------6------|  |--3--|  |3|
  S S S S S S S  S  S  S  S  S S  S  S  S  S  S E
|-------------------------------------------------|
|-------------------------------------------------|
|-------------------------------------------------|
|-7-5---5-7-5-------------------------------------|
|-----7-------7s10-12p10-12p10p7h10-12p10-12p10-7-|
|-------------------------------------------------|
|
| PM-----------------------------------------|
| E   E   E   E     E        E       E        E
|-------------------------------------------------|
|-------------------------------------------------|
|-4---4---4---4-----5--------5-------5--------5---|
|-0---0---0---0-----0--------0-------0--------0---|
|-------------------------------------------------|
|-------------------------------------------------|


   T       T       T       T       T       T       T       T
   |-3--|  |-3--|  |-3--|  |-3--|  |-3--|  |-3--|  |-3--|  |-3--|
   S  S S  S  S S  S  S S  S  S S  S  S S  S  S S  S  S S  S  S S
|-----------------------------------------------------------------|
|-12p10p7-12p10p7-13p10p7-13p10p7-14p10p7-14p10p7-15p10p7-15p10p7-|
|-----------------------------------------------------------------|
|-----------------------------------------------------------------|
|-----------------------------------------------------------------|
|-----------------------------------------------------------------|
|
|  PM--------------------------------------------------------------
|  E       E       E       E       E       E       E       E
|-----------------------------------------------------------------|
|-----------------------------------------------------------------|
|--2-------2-------2-------2-------3-------3-------3-------3------|
|--0-------0-------0-------0-------0-------0-------0-------0------|
|-----------------------------------------------------------------|
|-----------------------------------------------------------------|


   T       T       T       T       T       T
   |-3--|  |-3--|  |-3--|  |-3--|  |-3--|  |-3--|
   S  S S  S  S S  S  S S  S  S S  S  S S  S  S S Q
|--------------------------------------------------------||
|-16p10p7-17p10p7-18p10p7-19p10p7-20p10p7-21p10p7--------||
|--------------------------------------------------------||
|-------------------------------------------------x-----||
|-------------------------------------------------x-----||
|-------------------------------------------------x-----||
|
|----------------------------------------------------|
|  E       E       E       E       E       E      E  E
|--------------------------------------------------------||
|--------------------------------------------------------||
|--4-------4-------4-------4-------5-------5------5--5---||
|--0-------0-------0-------0-------0-------0------0--0---||
|--------------------------------------------------------||
|--------------------------------------------------------||


   Bridge
    Gtrs II, III
    PM--|               PM----|          PM--|               PM----|
    E E E E E E E E   E E E E E E E  E   E E E E E E E E   E E E E E E E  E
||------------------|------------------|-----------------|--------------------||
||o-----------------|------------------|-----------------|-------------------o||
||------------------|------------------|-----------------|--------------------||
||--7-7-7-5-7-5-7-9-|-8-8-8-8-8-9-9s10-|-7-7-7-5-7-5-7-9-|-8-8-8-8-8-9-9s10---||
||o-0-0-0-0-0-0-0-7-|-6-6-6-6-6-7-7s=9-|-0-0-0-0-0-0-0-7-|-6-6-6-6-6-7-7s=9--o||
||------------------|------------------|-----------------|--------------------||


    D5      Bb/Dopen(tBm/D2)  Csus2/D   D5      Bb/Dopen(tBm/D2)  Csus2/D
    PM------------------------------------------------------------------|
    E E E E E E E E   E E E E E E E E   E E E E E E E E   E E E E E E E E
||------------------|-----------------|-----------------|-------------------||
||o-----------------|-----------------|-----------------|------------------o||
||--2-2-2-2-3-3-3-3-|-4-4-4-4-5-5-5-5-|-2-2-2-2-3-3-3-3-|-4-4-4-4-5-5-5-5---||
||--0-0-0-0-0-0-0-0-|-0-0-0-0-0-0-0-0-|-0-0-0-0-0-0-0-0-|-0-0-0-0-0-0-0-0---||
||o-----------------|-----------------|-----------------|------------------o||
||------------------|-----------------|-----------------|-------------------||


      PM--|   PM        PM--|                 PM--|   PM        PM--|
                              |-3-|                                   |-3-|
    E E E E E E E E   E E E E Q Q Q  4x     E E E E E E E E   E E E E Q Q Q  4x
||------------------|----------------||-||------------------|----------------||
||o-----------------|---------------o||-||o-----------------|---------------o||
||------------------|----------------||-||------------------|----------------||
||------------------|----------------||-||------------------|----------------||
||o-0-------0---2-3-|-0-------0-2-3-o||-||o-2-------2---4-5-|-2-------2-4-5-o||
||----0-0-0---0-----|---1-1-1--------||-||----2-2-2---2-----|---3-3-3--------||


      PM--|   PM        PM--|                 PM--|   PM        PM--|
                              |-3-|                                   |-3-|
    E E E E E E E E   E E E E Q Q Q  3x     E E E E E E E E   E E E E Q Q Q  3x
||------------------|----------------||-||------------------|----------------||
||o-----------------|---------------o||-||o-----------------|---------------o||
||------------------|----------------||-||------------------|----------------||
||------------------|----------------||-||------------------|----------------||
||o-3-------3---5-6-|-3-------3-5-6-o||-||o-5-------5---7-8-|-5-------5-7-8-o||
||----3-3-3---3-----|---4-4-4--------||-||----5-5-5---5-----|---6-6-6--------||


  Gtrs II, III
  H..       E   W          H..         E    W
|-------------|----------|---------------|------------|
|-------------|----------|---------------|------------|
|-------------|----------|---------------|------------|
|-2---------9-|-8--------|-2-----------9-|--8---------|
|-0---------7-|-6--------|-0-----------7-|--6---------|
|-------------|----------|---------------|------------|
|
| Gtr IV
|                                 7
| W             W          H      H        +W
|-------------|----------|---------------|------------|
|-------------|----------|---------------|------------|
|-------------|----------|---------------|------------|
|-------------|----------|---------------|------------|
|-------------|----------|--------7------|-(7)--------|
|-------------|----------|---------------|------------|


  H..       E   W          H..         E    W
|-------------|----------|---------------|--------||
|-------------|----------|---------------|--------||
|-------------|----------|---------------|--------||
|-2---------9-|-8--------|-2-----------9-|--8-----||
|-0---------7-|-6--------|-0-----------7-|--6-----||
|-------------|----------|---------------|--------||
|
|                                 7
| W             W          H      H        +W
|-------------|----------|---------------|--------||
|-------------|----------|---------------|--------||
|-------------|----------|---------------|--------||
|-------------|----------|---------------|--------||
|-------------|----------|--------0------|-(0)----||
|-------------|----------|---------------|--------||


    Amadd2              Amadd2/Eb               Dm      Bb/Dopen
    Gtr III
    PM-----------------------------------------------------------
    E   E E E E E E E   E E E E E E E E  4x     E E E E E E E E
||------------0-------|---------0--------||-||--------1-------1-|
||o---------0---0-----|-------0---0-----o||-||o-----3-------3---|
||--------5-------5---|-----5-------5----||-||----2-------3-----|
||------7-------------|---7-----------7--||-||--0-------0-------|
||o-0---------------7-|-6---------------o||-||o-----------------|
||--------------------|------------------||-||------------------|
|
|   Gtr II
|   H..             E   W                4x     H       H
||--------------------|------------------||-||------------------|
||o-------------------|-----------------o||-||o-----------------|
||--------------------|------------------||-||--2-------3-------|
||--2---------------9-|-8----------------||-||--0-------0-------|
||o-0---------------7-|-6---------------o||-||o-----------------|
||--------------------|------------------||-||------------------|


 1.,2.,3.             4.
  Dm6     D5          Dm6       Em
 -----------------------------------|
  E E E E E E E E     E E E E E E E E   +W
|-------1-------5--||-------1-------3-|-(3)----||
|-----3-------3---o||-----3-------5---|--------||
|---4-------5------||---4-------4-----|--------||
|-0-------0--------||-0---------------|--------||
|-----------------o||-----------------|--------||
|------------------||-----------------|--------||
|
| H       H           H       H         +W
|------------------||-----------------|--------||
|-----------------o||-----------------|--------||
|-4----------------||-4---------------|--------||
|-0----------------||-0---------------|--------||
|-----------------o||---------2-------|-(2)----||
|------------------||---------0-------|-(0)----||


    Gtr III
                             ~~~~~                           ~~~~~
    W                 H      H         W                 Q   H.       4x
||------------------|----------------|-----------------|--------------||
||o-----------------|----------------|-----------------|----15b17----o||
||------------------|-------14b16----|-----------------|--------------||
||------------------|----------------|-----------------|--------------||
||o-----------------|----------------|-----------------|-------------o||
||------------------|----------------|-----------------|--------------||
|
|   Gtr II
|   E E E E +Q   Q    Q  Q   H         E E E E +Q   Q    Q   H.       4x
||------------------|----------------|-----------------|--------------||
||o-----------------|----------------|-----------------|-------------o||
||------------------|----------------|-----------------|--------------||
||------------------|----9---9-------|-----------------|-----9--------||
||o-5-4-4-4-(4)--5--|-2--7---7-------|-5-4-4-4-(4)--5--|-2---7-------o||
||--3-2-2-2-(2)--3--|-0--------------|-3-2-2-2-(2)--3--|-0------------||


    Gtr II
     E  E        E  E  +Q    Q        Q   Q   H
||------------------------------|------------------|
||o-----------------------------|------------------|
||------------------------------|------------------|
||------------------------------|---------9---9----|
||o--5--4--------4--4--(4)---5--|-----2---7---7----|
||---3--2--------2--2--(2)---3--|-----0------------|
|
|   Gtr III
|                   ~~~~~~~                   ~~
|       |--3--|
|    E  S  S  S  E  E  +Q    Q     a  Q   Q   H
||------------------------------|------------------|
||o-12-10h12p10----10-(10)--12--|------------------|
||--------------12--------------|-11h12------------|
||------------------------------|--------12--14----|
||o-----------------------------|------------------|
||------------------------------|------------------|
|
|   Gtr IV
|                   ~~~~~~~                   ~~
|       |--3--|
|    E  S  S  S  E  E  +Q    Q     a  Q   Q   H
||------------------------------|------------------|
||o-----------------------------|------------------|
||--12-11h12p11----11-(11)--12--|------------------|
||--------------14--------------|-12h14------------|
||o-----------------------------|--------10--14----|
||------------------------------|------------------|


   E  E        E  E  +Q    Q        Q   H.
|-----------------------------|----------------||
|-----------------------------|---------------o||
|-----------------------------|----------------||
|-----------------------------|---------9------||
|--5--4--------4--4--(4)---5--|-----2---7-----o||
|--3--2--------2--2--(2)---3--|-----0----------||
|
|                 ~~~~~~~               ~~~
|     |--3--|
|  E  S  S  S  E  E  +Q    Q     a  Q   H.
|-----------------------------|----------------||
|-12-10h12p10----10-(10)--12--|---------------o||
|-------------12--------------|-11h12----------||
|-----------------------------|----------------||
|-----------------------------|--------14-----o||
|-----------------------------|----------------||
|
|                 ~~~~~~~               ~~~
|     |--3--|
|  E  S  S  S  E  E  +Q    Q     a  Q   H.
|-----------------------------|----------------||
|-----------------------------|---------------o||
|-12-11h12p11----11-(11)--12--|----------------||
|-------------14--------------|-12h14----------||
|-----------------------------|--------10-----o||
|-----------------------------|----------------||


     E  E        E  E  +Q    Q        Q   Q   H
||------------------------------|------------------|
||o-----------------------------|------------------|
||------------------------------|------------------|
||------------------------------|---------9---9----|
||o--5--4--------4--4--(4)---5--|-----2---7---7----|
||---3--2--------2--2--(2)---3--|-----0------------|
|
|                   ~~~~~~~                   ~~
|       |--3--|
|    E  S  S  S  E  E  +Q    Q     a  Q   Q   H
||------------------------------|------------------|
||o-12-10h12p10----10-(10)--12--|------------------|
||--12-11h12p11-12-11-(11)--12--|-11h12------------|
||--------------14--------------|-12h14--12--14----|
||o-----------------------------|--------10--14----|
||------------------------------|------------------|
|
|                                             ~~
|       |--3--|
|    E  S  S  S  E  E  +Q    Q     a  Q   Q   H
||--10--9h10p=9-----9--(9)--10--|------------------|
||o-------------12--------------|-10h12------------|
||------------------------------|--------11--12----|
||------------------------------|------------------|
||o-----------------------------|------------------|
||------------------------------|------------------|


                               1.
   E  E        E  E  +Q    Q        Q   H.
|-----------------------------|----------------||
|-----------------------------|---------------o||
|-----------------------------|----------------||
|-----------------------------|---------9------||
|--5--4--------4--4--(4)---5--|-----2---7-----o||
|--3--2--------2--2--(2)---3--|-----0----------||
|
|                 ~~~~~~~               ~~~
|     |--3--|
|  E  S  S  S  E  E  +Q    Q     a  Q   H.
|-----------------------------|----------------||
|-12-10h12p10----10-(10)--12--|---------------o||
|-12-11h12p11-12-11-(11)--12--|-11h12----------||
|-------------14--------------|-12h14----------||
|-----------------------------|--------14-----o||
|-----------------------------|--------15------||
|
|     |--3--|
|  E  S  S  S  E  E  +Q    Q     a  Q   H.
|-10--9h10p=9-----9--(9)--10--|----------------||
|-------------12--------------|-10h12---------o||
|-----------------------------|----------------||
|-----------------------------|--------12------||
|-----------------------------|---------------o||
|-----------------------------|----------------||


  2.
                                      D.S. al Coda
      Q   H     E  E    +Q    E  E  +H        +W
|--------------------|---------------------|----------||
|--------------------|---------------------|----------||
|--------------------|---------------------|----------||
|---------------4--4-|--(4)---4--4--(4)----|--(4)-----||
|-----2---2-----2--2-|--(2)---2--2--(2)----|--(2)-----||
|-----0---0----------|---------------------|----------||
|
|  a  Q   H     E  E    +Q    E  E  +H        +W
|--------------------|---------------------|----------||
|--------------------|---------------------|----------||
|-11h12--------------|---------------------|----------||
|-12h14--------12-12-|-(12)--12-12-(12)----|-(12)-----||
|--------14----14-14-|-(14)--14-14-(14)----|-(14)-----||
|--------15----------|---------------------|----------||
|
|  a  Q   H     E  E    +Q    E  E  +H        +W
|--------------------|---------------------|----------||
|-10h12--------------|---------------------|----------||
|--------------11-11-|-(11)----------------|----------||
|--------12----------|-------12-12-(12)----|-(12)-----||
|--------------------|---------------------|----------||
|--------------------|---------------------|----------||


 Outro
  &
  Gtr I
   E  E E E E E E E   E E E E E E E E   E    E E E E E E E   E E E E E E E E
|-----5---------5---|---5---------5---|------6---------6---|---6---------6---|
|---------6---5---6-|-------6---5---6-|----------6-------6-|-------6-------6-|
|-------7-----------|-----7-----------|--------7-----9-----|-----7-----9-----|
|--0--------7-------|-0-------7-------|-0----------8-------|-0-------8-------|
|-------------------|-----------------|--------------------|-----------------|
|-------------------|-----------------|--------------------|-----------------|
|
| Gtr II
|                                       T
|  W                  W                 W                    W
|-<5>---------------|-----------------|-1(6)---------------|-----------------|
|-------------------|-----------------|--------------------|-----------------|
|-------------------|-----------------|--------------------|-----------------|
|-------------------|-----------------|--------------------|-----------------|
|-------------------|-----------------|--------------------|-----------------|
|-------------------|-----------------|--------------------|-----------------|


                                H.=H
  E    E E E  E E E E   E E E E  E E E E   E    E E E E E E E    H    H
|------8----------8---|---8----------8---|------5---------5---|-^5---------||
|----------8--------8-|-------8--------8-|----------6-------5-|-^6---------||
|--------9------9-----|-----9------9-----|--------7-----7-----|-^7---------||
|-0----------10-------|-0-------10-------|-0----------7-------|-^0---------||
|---------------------|------------------|--------------------|------------||
|---------------------|------------------|--------------------|------------||
|
|                     Gtr VI
| T
| W                     H        E E Q     H          H          W
|-3(8)----------------|----------5-6p5---|-5tr6---------------|------------||
|---------------------|------------------|--------------------|------------||
|---------------------|------------------|--------------------|------------||
|---------------------|------------------|--------------------|------------||
|---------------------|------------------|--------------------|------------||
|---------------------|------------------|--------------------|------------||


  Slower Q=90
  Gtrs II, III, IV, V
                                                     TP
  Q  Q  Q  Q    Q   Q  Q.   E   Q  Q  Q  Q    Q   Q  H
|-------------|---------------|-------------|-------------|
|-6--5--6--3--|-6--10--6------|-6--5--6--3--|-6--10--6----|
|-7--5--7--3--|-7--10--7------|-7--5--7--3--|-7--10--7----|
|-7--5--7--3--|-7--10--7------|-7--5--7--3--|-7--10--7----|
|-5--3--5--1--|-5---8--5------|-5--3--5--1--|-5---8--5----|
|-------------|---------------|-------------|-------------|


   TP           TP           TP
  +W           +W           +H     Q   Q
|------------|------------|---------------*|
|-(6)--------|-(6)--------|-(6)----6-----*|
|-(7)--------|-(7)--------|-(7)----7-----*|
|-(7)--------|-(7)--------|-(7)----7-----*|
|-(5)--------|-(5)--------|-(5)----5-----*|
|------------|------------|---------------*|


Duration Legend
---------------
W - whole; H - half; Q - quarter; E - 8th; S - 16th; T - 32nd; X - 64th; a - acciaccatura
+ - note tied to previous; . - note dotted; .. - note double dotted
Uncapitalized letters represent notes that are staccato (1/2 duration)
Irregular groupings are notated above the duration line
Duration letters will always appear directly above the note/fret number it represents the
duration for.  Duration letters with no fret number below them represent rests.  Multi-
bar rests are notated in the form Wxn, where n is the number of bars to rest for.  Low
melody durations appear below the staff

Tablature Legend
----------------
 h   - hammer-on
 p   - pull-off
 b   - bend
 pb  - pre-bend
 r   - bend release (if no number after the r, then release immediately)
 /  - slide into or out of (from/to "nowhere")
 s   - legato slide
 S   - shift slide
  - natural harmonic
[n]  - artificial harmonic
n(n) - tapped harmonic
 ~   - vibrato
 tr  - trill
 T   - tap
 TP  - trem. picking
 PM  - palm muting
n/  - tremolo bar dip; n = amount to dip
 n  - tremolo bar down
 n/  - tremolo bar up
/n  - tremolo bar inverted dip
 =   - hold bend; also acts as connecting device for hammers/pulls
 <>  - volume swell (louder/softer)
 x   - on rhythm slash represents muted slash
 o   - on rhythm slash represents single note slash

Misc Legend
-----------
 |  - bar
||  - double bar
||o - repeat start
o|| - repeat end
*|  - double bar (ending)
 :  - bar (freetime)
 $  - Segno
 &  - Coda
Tempo markers -  = BPM(8/16=s8/s16), where s8 = swing 8ths, s16 = swing 16ths


Valew ae CifraClub..!! 
OBS: Está tab
Composição de Cliff Burton / Dave Mustaine / James Hetfield / Lars Ulrich
64.471 exibições
    • ½ Tom
    • A
    • Bb
    • B
    • C
    • Db
    • D
    • Eb
    • E
    • F
    • F#
    • G
    • Ab
  • Adicionar à lista

    0 comentários

    Mostrar mais comentários

    Conseguiu tocar?

    5 Tocaram 0 Ainda não

    Grave um vídeo tocando The Call Of Ktulu e mande pra gente!

    00:00 / 00:00
    outros vídeos desta música
    repetir qualidade Automático
    Outros vídeos desta música
    00:00 / 00:00
    Automático
    OK