Cifra Club

Aprenda

The Four Horsemen

Metallica

Cifra: Principal (violão e guitarra)
tom: G
Intro:
E|-----------||---------------------------------------------------------------|
B|-----------||---------------------------------------------------------------|
G|-----------||---------------------------------------------------------------|
D|--5---7-5--||----------------------------------------------------------5h7--|
A|--3-5-5-3--||--7p5-7p5-7p5-7p5-7p5-7p5-7p5-----7p5-7p5-7p5-7p5-----5h7------|
E|----3------||--0---0---0---0---0---0---0---7-6-0---0---0---0---7-6----------|

[Verso]

E|---------------------------||-------||-------||----------------|
B|---------------------------||-------||-------||----------------|
G|---------------------------||-------||-------||----------------|
D|--------9-------9-------9--||--7-7--||--5-7--||--12-9-5---7-5--|
A|--------7-------7-------7--||--5-5--||--3-5--||--10-7-3-5-5-3--|
E|--0-0-0---0-0-0---0-0-0----||-------||-------||---------3------|
     . . .   . . .   . . .

[Refrão]

E|-------------------------------------|
B|-------------------------------------|
G|-------------------------------------|
D|--9-9-7-7-5-5-4-----9-9-7-7-4-5-4-5--|
A|--7-7-5-5-3-3-2--*--7-7-5-5-2-3-2-3--|
E|-----------------*-------------------|

[Ponte]

E|-------------------------------------------------|
B|-------------------------------------------------|
G|-------------------------------------------------|
D|-----------------------10/9-9-------------10-10--|
A|------------------------8/7-9--------------8--8--|
E|--0-0-0-0-0-0-0-0-0-0---------0-0-0-0-0-0--------|
    . . . . . . . . . .         . . . . . .

E|-------------------------------------------------|
B|-------------------------------------------------|
G|-------------------------------------------------|
D|-------------------------------------------------|
A|--7-5---5----------------------7-5---5-----------|
E|------7---7-5-7-5-3-5-3-0--5-3-----7---7-5-7-----|

E|------------------------------------------------|
B|------------------------------------------------|
G|------------------------------------------------|
D|--5-6-7----------3-2-0-2-------5---6---7--------|
A|--3-4-5------0-2---------------3---4---5--------|
E|---------0-0-------------0-0-0---0---0----------|

E|------------------------------------------------|
B|------------------------------------------------|
G|------4---------2---------4----------2----------|
D|--2-2---2---------2---------2----------2--------|
A|----------2-5-5-----5-3-3-----3-2-2------2------|
E|------------------------------------------------|

[Solo]

E|----------------------------------------15b17--15--12--15--14~-------|
B|---15b17--15b17---15b17r15---15--12--15------------------------------|
G|---------------------------------------------------------------------|
D|---------------------------------------------------------------------|
A|---------------------------------------------------------------------|
E|---------------------------------------------------------------------|

E|----7------------9---7---------------10--9--7------------------------|
B|--------10---7------------10--9--8----------------7h10------7h10-----|
G|---------------------------------------------------------------------|
D|---------------------------------------------------------------------|
A|---------------------------------------------------------------------|
E|---------------------------------------------------------------------|

E|----------------------------------------7-7--7--------7-7----------7-7-7-----|
B|----------------------------------------7-7--7--------7-7----------7-7-7-----|
G|----9--7--6h7--6-----------------7/9-------------7/9-----------7/9-----------|
D|------------------7----------------------------------------------------------|
A|--------------------7~~------------------------------------------------------|
E|-----------------------------------------------------------------------------|

E|---------------------------------------------------------------------|
B|---10b12--10p7-------------------------------------------------------|
G|---------------9--7------7--9b11--9p7------7~~-----------------------|
D|---------------------9----------------9------------------------------|
A|---------------------------------------------------------------------|
E|---------------------------------------------------------------------|

E)-------------------------------------------------7--8p7------7--8--8/10--10/12--12/14--14/15--15~~|
B)----7---8---7-------7---8---7h8p7------7--8--10----------10--------------------------------------|
G)---------------9-------------------9-------------------------------------------------------------|
D)-------------------------------------------------------------------------------------------------|
A)-------------------------------------------------------------------------------------------------|
E)-------------------------------------------------------------------------------------------------|



E|--17b19-17b19-15-17p15-14-15p14\12-14p12--|
B|------------------------------------------|
G|------------------------------------------|
D|------------------------------------------|
A|------------------------------------------|
E|------------------------------------------|

E|--------------------------------------------------------------|
B|--15-15-14-12-14-12-10-12-10-8-10-8---8-----------------------|
G|------------------------------------9---9-7-9-----------------|
D|----------------------------------------------9---------------|
A|------------------------------------------------10-17---------|
E|------------------------------------------------------10-7-7--|
                                                       . . .
E|----------------------------------------------12----12------|
B|--------------------8---8-10-8-10-12-10-12-15----15---------|
G|--------7---7-9-7-9---9-------------------------------------|
D|--9-7-9---9-------------------------------------------------|
A|------------------------------------------------------------|
E|------------------------------------------------------------|

E|--15p2-12-12-15p12-12-12-12-15p12-12-12-12-12-12-12-12-15p12--|
B|--------------------------------------------------------------|
G|--------------------------------------------------------------|
D|--------------------------------------------------------------|
A|--------------------------------------------------------------|
E|--------------------------------------------------------------|

E|--12-12-12-12-12-15^17-15^17-15^17-15-12-15p12-15p12-15-12-12h15p12----12--|
B|--------------------------------------------------------------------15-----|
G|---------------------------------------------------------------------------|
D|---------------------------------------------------------------------------|
A|---------------------------------------------------------------------------|
E|---------------------------------------------------------------------------|

E|--15p12-12h15p12----12-15p12-12--|
B|-----------------15--------------|
G|---------------------------------|
D|---------------------------------|
A|---------------------------------|
E|---------------------------------|

E|--15p12----12-15p12-12h15p12----12-15p12-15p12----12-15^17-15^17-15^17--|
B|--------15-------------------15----------------15-----------------------|
G|------------------------------------------------------------------------|
D|------------------------------------------------------------------------|
A|------------------------------------------------------------------------|
E|------------------------------------------------------------------------|

E|----------------------------------------------------------------------|
B|--12------------------------------------------------------------------|
G|-----14-12---------12h14-12p11h12p11----11----------------------------|
D|-----------14-12---------------------14----14--12p11h12p11\9--11p9\7--|
A|----------------------------------------------------------------------|
E|----------------------------------------------------------------------|

E|------------------------------------|
B|------------------------------------|
G|------------------------------------|
D|--9-10-9-10-9-10-9-10----8^10-------|
A|--7-8--7-8--7-8--7-8----------8^10--|
E|------------------------------------|

[Solo]

E|---------------------------------------12-15-12----12-17-12----|
B|--------------------------------14--15----------15----------15-|
G|-----------------------14----14--------------------------------|
D|--------------14----13----12-----------------------------------|
A|-----14----13----12--------------------------------------------|
E|--13----12-----------------------------------------------------|

E|-----12-15-12----12-17-12----12-15-12----12-17-12----12-15-12----12-17-12-----|
B|--15----------15----------15----------15----------15----------15----------15--|
G|------------------------------------------------------------------------------|
D|------------------------------------------------------------------------------|
A|------------------------------------------------------------------------------|
E|------------------------------------------------------------------------------|

E|----12-15-12----12-17-12----12-15-12----12-17-15----12-15-12----12-17-12------|
B|-15----------15----------15----------15----------15----------15----------15---|
G|------------------------------------------------------------------------------|
D|------------------------------------------------------------------------------|
A|------------------------------------------------------------------------------|
E|------------------------------------------------------------------------------|

E|--------------------------------------|
B|--15^17-15^7-15^17-15^17-15^17-15^17--|
G|--------------------------------------|
D|--------------------------------------|
A|--------------------------------------|
E|--------------------------------------|

         (8x)
E|----------------------------------------------------------------------|
B|--15p14p12------------15p14p12----12----------------------------------|
G|-----------14^16---------------14----14-12-14-12----12----------------|
D|-------------------------------------------------14----14-12-14-12----|
A|-------------------------------------------------------------------14-|
E|----------------------------------------------------------------------|

                                                      (6x)
E|--------------------------------------------18-18-18-18-18-18h21p18--21b-21b-|
B|-----------------------12-12(AH)-12(AH)--------------------------------------|
G|-----------------------12----------------------------------------------------|
D|-----------------12-14-------------------------------------------------------|
A|-----------12-14-------------------------------------------------------------|
E|--12-14-15-------------------------------------------------------------------|

                     (3X)
E|--18-20-21-20-18----19------------------------------------------|
B|-----------------21----21-20-21-20-18---------------------------|
G|--------------------------------------20-----20^22-20^20-20^22--|
D|----------------------------------------------------------------|
A|----------------------------------------------------------------|
E|----------------------------------------------------------------|

       (6X)          (6X)         (6X)        (6X)          (6X)
E|-----12-15-12----19p15--------17p14--------21p17--------22^-22^--|
B|--15-------------------17-----------15-----------17--------------|
G|-----------------------------------------------------------------|
D|-----------------------------------------------------------------|
A|-----------------------------------------------------------------|
E|-----------------------------------------------------------------|
Composição de Dave Mustaine / James Hetfield / Lars Ulrich
Colaboração e revisão:
  • Guilherme Krul
  • Matheus Oliveira
47.130 exibições
    • ½ Tom
    • A
    • Bb
    • B
    • C
    • Db
    • D
    • Eb
    • E
    • F
    • F#
    • G
    • Ab
  • Adicionar à lista

    0 comentários

    Ver todos os comentários

    Conseguiu tocar?

    14 Tocaram 0 Ainda não

    Grave um vídeo tocando The Four Horsemen e nos envie!

    00:00 / 00:00
    outros vídeos desta música
    repetir qualidade Automático
    Outros vídeos desta música
    00:00 / 00:00
    Automático

    Cifra Club Pro

    Aproveite o Cifra Club com benefícios exclusivos e sem anúncios
    Cifra Club Pro
    Aproveite o Cifra Club com benefícios exclusivos e sem anúncios
    OK