Cifra Club

Aprenda

The Four Horsemen

Metallica

Cifra: Versão 2 (violão e guitarra)
tom: D
E |-----------||-------------------------------------------------|----------|
B |-----------||-------------------------------------------------|----------|
G |-----------||-------------------------------------------------|----------|
D |--5---7-5--||-------------------------------------------------|-----5h7--|
A |--3-5-5-3--||-5h7-5h7-5h7-5h7-5h7-5h7-5h7----5h7-5h7-5h7-5h7--|--5h7-----|
E |----3------||-0---0---0---0---0---0---0---7-6-----0---0---0---|7-6-------|

E |-------------------------------------||-------------|
B |-------------------------------------||-------------|
G |-------------------------------------||-------------|
D |-------------------------------------||--5---7-5----|
A |--5h7-5h7-5h7-----5h7-5h7-5h7-5h7----||--3-5-5-3----|
E |--0---0---0---7-6-0---0---0---0------||----3--------|

E |--------------------------------------------------||-------------|
B |--------------------------------------------------||-------------|
G |--------------------------------------------------||-------------|
D |--------------------------------------------------||--------5h7--|
A |--5h7-5h7-5h7-5h7-5h7-5h7-5h7-----5h7-5h7-5h7-5h7-||----5h7------|
E |--0---0---0---0---0---0---0---7-6-0---0---0---0---||7-6----------|

E |-------------------------------------||-------------|
B |-------------------------------------||-------------|
G |-------------------------------------||-------------|
D |-------------------------------------||--5---7-5----|
A |--5h7-5h7-5h7-----5h7-5h7-5h7-5h7----||--3-5-5-3----|
E |--0---0---0---7-6-0---0---0---0------||----3--------|

E |---------------------------||-------||-------||------||----------| 3x
B |---------------------------||-------||-------||------||----------|
G |---------------------------||-------||-------||------||----------|
D |--------9-------9-------9--||--7-7--||--5-7--||--12-9||-5---7-5--|
A |--------7-------7-------7--||--5-5--||--3-5--||--10-7||-3-5-5-3--|
E |--0-0-0---0-0-0---0-0-0----||-------||-------||------||---3------|

E |--------------------------------------|
B |--------------------------------------|
G |--------------------------------------|
D |--9-9-7-7-5-5-4------9-9-7-7-4-5-4-5--|
A |--7-7-5-5-3-3-2--PS--7-7-5-5-2-3-2-3--|
E |-----------------PS-------------------|
PS-PICK SLIDE                  . . . .


E |---------------------------------------------------------------|
B |---------------------------------------------------------------|
G |---------------------------------------------------------------|
D |----------------------------------------------------------5h7--|
A |--5h7-5h7-5h7-5h7-5h7-5h7-5h7-----5h7-5h7-5h7-5h7-----5h7------|
E |--0---0---0---0---0---0---0---7-6-0---0---0---0---7-6----------|

E |-------------------------------------||-------------|
B |-------------------------------------||-------------|
G |-------------------------------------||-------------|
D |-------------------------------------||--5---7-5----|
A |--5h7-5h7-5h7-----5h7-5h7-5h7-5h7----||--3-5-5-3----|
E |--0---0---0---7-6-0---0---0---0------||----3--------|

E |---------------------------------------------------------------|
B |---------------------------------------------------------------|
G |---------------------------------------------------------------|
D |----------------------------------------------------------5h7--|
A |--5h7-5h7-5h7-5h7-5h7-5h7-5h7-----5h7-5h7-5h7-5h7-----5h7------|
E |--0---0---0---0---0---0---0---7-6-0---0---0---0---7-6----------|

E |-------------------------------------||-------------|
B |-------------------------------------||-------------|
G |-------------------------------------||-------------|
D |-------------------------------------||--5---7-5----|
A |--5h7-5h7-5h7-----5h7-5h7-5h7-5h7----||--3-5-5-3----|
E |--0---0---0---7-6-0---0---0---0------||----3--------|1:17

E |---------------------------||-------||-------||------||----------| 2x
B |---------------------------||-------||-------||------||----------|
G |---------------------------||-------||-------||------||----------|
D |--------9-------9-------9--||--7-7--||--5-7--||--12-9||-5---7-5--|
A |--------7-------7-------7--||--5-5--||--3-5--||--10-7||-3-5-5-3--|
E |--0-0-0---0-0-0---0-0-0----||-------||-------||------||---3------|

E |--------------------------------------| 2x
B |--------------------------------------|
G |--------------------------------------|
D |--9-9-7-7-5-5-4------9-9-7-7-4-5-4-5--|
A |--7-7-5-5-3-3-2--PS--7-7-5-5-2-3-2-3--|
E |-----------------PS-------------------|
PS-PICK SLIDE                  . . . .


E |-----------||-----------------------------------------------------------|
B |-----------||-----------------------------------------------------------|
G |-----------||-----------------------------------------------------------|
D |--5---7-5--||-------------------------------------------------------5h7-|
A |--3-5-5-3--||--5h7-5h7-5h7-5h7-5h7-5h7-5h7-----5h7-5h7-5h7-5h7---5h7----|
E |----3------||--0---0---0---0---0---0---0---7-6-0---0---0---0---7-6------|

E |-------------------------------------||-------------|
B |-------------------------------------||-------------|
G |-------------------------------------||-------------|
D |-------------------------------------||--5---7-5----|
A |--5h7-5h7-5h7-----5h7-5h7-5h7-5h7----||--3-5-5-3----|
E |--0---0---0---7-6-0---0---0---0------||----3--------|

E |---------------------------------------------------------------|
B |---------------------------------------------------------------|
G |---------------------------------------------------------------|
D |----------------------------------------------------------5h7--|
A |--5h7-5h7-5h7-5h7-5h7-5h7-5h7-----5h7-5h7-5h7-5h7-----5h7------|
E |--0---0---0---0---0---0---0---7-6-0---0---0---0---7-6----------|

E |-------------------------------------||-------------|
B |-------------------------------------||-------------|
G |-------------------------------------||-------------|
D |-------------------------------------||--5---7-5----| Deixa Tocar
A |--5h7-5h7-5h7-----5h7-5h7-5h7-5h7----||--3-5-5-3----|
E |--0---0---0---7-6-0---0---0---0------||----3--------|2:07

E |---------------------||----------------------------------| 4x
B |---------------------||----------------------------------|
G |---------------------||----------------------------------|
D |---------------------||--10/9---------------------10-10--|
A |---------------------||---8/7----------------------8--8--|
E |--0-0-0-0-0-0-0-0-0-0||---------0-0-0-0-0-0-0-0-0--------|2:35
 \ Bastante Vezes /


SOLO 1:

E |-------------------------------------15^17-12-15--14b16-------|
B |--15^17-15^17--15^17-15p12-15-15^17---------------------------|
G |----------------------------------------------------------\9--|
D |--------------------------------------------------------------|
A |--------------------------------------------------------------|
E |--------------------------------------------------------------|3:50

E |--7------9-7--------10-9-7------------------------------------|
B |----10-7-----10-8-7--------7h10p7---7-10p7--------------------|
G |-------------------------------------------9-7-6h7-6----------|
D |-----------------------------------------------------7--------|
A |-------------------------------------------------------7------|
E |--------------------------------------------------------------|

E |--------------------------------|
B |----12-12-12----12----12-12-12--|
G |--9-11-11-11/11-11/11-11-11-11--|
D |--------------------------------|
A |--------------------------------|
E |--------------------------------|

E |-------------------------------------------------|
B |-------------------------------------------------|
G |--14^16-14p11------------------------------------|
D |--------------14-12----12-14^16p12----12-12-12---|
A |--------------------14-------------14------------|
E |-------------------------------------------------|

E |------------------------------------------------------------|
B |-----------------------------------------12-13p12----12-13--|
G |--11h12-11----11-12-11h12p11----11-12-14----------14--------|
D |-----------14----------------14-----------------------------|
A |------------------------------------------------------------|
E |------------------------------------------------------------|

E |-----------------------------------20--|
B |--13/15--15/17--17/19--19/20-20~~~-----|
G |---------------------------------------|
D |---------------------------------------|
A |---------------------------------------|
E |---------------------------------------|

E |--17b19-17b19-15-17p15-14-15p14\12-14p12--
B |------------------------------------------
G |------------------------------------------
D |------------------------------------------
A |------------------------------------------
E |------------------------------------------...

--------------------------------------------------------------|
--15-15-14-12-14-12-10-12-10-8-10-8---8-----------------------|
------------------------------------9---9-7-9-----------------|
----------------------------------------------9---------------|
------------------------------------------------10-17---------|
------------------------------------------------------10-7-7--|

E |----------------------------------------------12----12------|
B |--------------------8---8-10-8-10-12-10-12-15----15---------|
G |--------7---7-9-7-9---9-------------------------------------|
D |--9-7-9---9-------------------------------------------------|
A |------------------------------------------------------------|
E |------------------------------------------------------------|

E |--15p2-12-12-15p12-12-12-12-15p12-12-12-12-12-12-12-12-15p12--
B |--------------------------------------------------------------
G |--------------------------------------------------------------
D |--------------------------------------------------------------
A |--------------------------------------------------------------
E |--------------------------------------------------------------...

--12-12-12-12-12-15^17-15^17-15^17-15-12-15p12-15p12-15-12-12h15p12----12--
--------------------------------------------------------------------15-----
---------------------------------------------------------------------------
---------------------------------------------------------------------------
---------------------------------------------------------------------------
---------------------------------------------------------------------------...

--15p12-12h15p12----12-15p12-12--|
-----------------15--------------|
---------------------------------|
---------------------------------|
---------------------------------|
---------------------------------|

E |--15p12----12-15p12-12h15p12----12-15p12-15p12----12-15^17-15^17-15^17--|
B |--------15-------------------15----------------15-----------------------|
G |------------------------------------------------------------------------|
D |------------------------------------------------------------------------|
A |------------------------------------------------------------------------|
E |------------------------------------------------------------------------|

E |----------------------------------------------------------------------|
B |--12------------------------------------------------------------------|
G |-----14-12---------12h14-12p11h12p11----11----------------------------|
D |-----------14-12---------------------14----14--12p11h12p11\9--11p9\7--|
A |----------------------------------------------------------------------|
E |----------------------------------------------------------------------|

E |------------------------------------|
B |------------------------------------|
G |------------------------------------|
D |--9-10-9-10-9-10-9-10----8^10-------|
A |--7-8--7-8--7-8--7-8----------8^10--|
E |------------------------------------|
                                       FIM DO SOLO 1


E |--------------------------------------------------| 4x
B |--------------------------------------------------|
G |--------------------------------------------------|
D |------------------------10/9---------------10-10--|
A |-------------------------8/7----------------8--8--|
E |--0-0-0-0-0-0-0-0-0-0----------0-0-0-0-0-0--------|

E |---------------------------------------------------------------|  5:00
B |---------------------------------------------------------------|
G |---------------------------------------------------------------|
D |----------------------------------------------------------5h7--|
A |--5h7-5h7-5h7-5h7-5h7-5h7-5h7-----5h7-5h7-5h7-5h7-----5h7------|
E |--0---0---0---0---0---0---0---7-6-0---0---0---0---7-6----------|

E |-------------------------------------||-------------|
B |-------------------------------------||-------------|
G |-------------------------------------||-------------|
D |-------------------------------------||--5---7-5----|
A |--5h7-5h7-5h7-----5h7-5h7-5h7-5h7----||--3-5-5-3----|
E |--0---0---0---7-6-0---0---0---0------||----3--------|

E |---------------------------------------------------------------|
B |---------------------------------------------------------------|
G |---------------------------------------------------------------|
D |----------------------------------------------------------5h7--|
A |--5h7-5h7-5h7-5h7-5h7-5h7-5h7-----5h7-5h7-5h7-5h7-----5h7------|
E |--0---0---0---0---0---0---0---7-6-0---0---0---0---7-6----------|

E |-------------------------------------||-------------|
B |-------------------------------------||-------------|
G |-------------------------------------||-------------|
D |-------------------------------------||--5---7-5----|
A |--5h7-5h7-5h7-----5h7-5h7-5h7-5h7----||--3-5-5-3----|
E |--0---0---0---7-6-0---0---0---0------||----3--------|5:16

E |---------------------------||-------||-------||------||----------| 2x
B |---------------------------||-------||-------||------||----------|
G |---------------------------||-------||-------||------||----------|
D |--------9-------9-------9--||--7-7--||--5-7--||--12-9||-5---7-5--|
A |--------7-------7-------7--||--5-5--||--3-5--||--10-7||-3-5-5-3--|
E |--0-0-0---0-0-0---0-0-0----||-------||-------||------||---3------|

E |--------------------------------------| 2x
B |--------------------------------------|
G |--------------------------------------|
D |--9-9-7-7-5-5-4------9-9-7-7-4-5-4-5--|
A |--7-7-5-5-3-3-2--PS--7-7-5-5-2-3-2-3--|
E |-----------------PS-------------------|5:48
PS-PICK SLIDE                  . . . .


E |-----------||------------------------------------------------------------|
B |-----------||------------------------------------------------------------|
G |-----------||------------------------------------------------------------|
D |--5---7-5--||-------------------------------------------------------5h7--|
A |--3-5-5-3--||--5h7-5h7-5h7-5h7-5h7-5h7-5h7-----5h7-5h7-5h7-5h7----5h7----|
E |----3------||--0---0---0---0---0---0---0---7-6-0---0---0---0---7-6-------|

E |-------------------------------------||-------------|
B |-------------------------------------||-------------|
G |-------------------------------------||-------------|
D |-------------------------------------||--5---7-5----|
A |--5h7-5h7-5h7-----5h7-5h7-5h7-5h7----||--3-5-5-3----|
E |--0---0---0---7-6-0---0---0---0------||----3--------|

E |---------------------------------------------------------------|
B |---------------------------------------------------------------|
G |---------------------------------------------------------------|
D |----------------------------------------------------------5h7--|
A |--5h7-5h7-5h7-5h7-5h7-5h7-5h7-----5h7-5h7-5h7-5h7-----5h7------|
E |--0---0---0---0---0---0---0---7-6-0---0---0---0---7-6----------|

E |-------------------------------------||-------------|
B |-------------------------------------||-------------|
G |-------------------------------------||-------------|
D |-------------------------------------||--5---7-5----|
A |--5h7-5h7-5h7-----5h7-5h7-5h7-5h7----||--3-5-5-3----|
E |--0---0---0---7-6-0---0---0---0------||----3--------|


SOLO 2:

E |---------------------------------------12-15-12----12-17-12----
B |--------------------------------14--15----------15----------15-
G |-----------------------14----14--------------------------------
D |--------------14----13----12-----------------------------------
A |-----14----13----12--------------------------------------------
E |--13----12-----------------------------------------------------...

-----12-15-12----12-17-12----12-15-12----12-17-12----12-15-12----12-17-12-----
--15----------15----------15----------15----------15----------15----------15--
------------------------------------------------------------------------------
------------------------------------------------------------------------------
------------------------------------------------------------------------------
------------------------------------------------------------------------------...

----12-15-12----12-17-12----12-15-12----12-17-15----12-15-12----12-17-12------
-15----------15----------15----------15----------15----------15----------15---
------------------------------------------------------------------------------
------------------------------------------------------------------------------
------------------------------------------------------------------------------
------------------------------------------------------------------------------...

--------------------------------------|
--15^17-15^7-15^17-15^17-15^17-15^17--|
--------------------------------------|
--------------------------------------|
--------------------------------------|
--------------------------------------|
 |----------------8X----------------|

E |------------------|--------------------------------------------------|
B |--15p14p12--------|--15p14p12----12----------------------------------|
G |-----------14^16--|-----------14----14-12-14-12----12----------------|
D |------------------|-----------------------------14----14-12-14-12----|
A |------------------|-----------------------------------------------14-|
E |------------------|--------------------------------------------------|

E |----------------------------------------|--18-18-18-18-18-18h21p18|-21b-21b-|
B |-----------------------12-12(AH)-12(AH)-|-------------------------|---------|
G |-----------------------12---------------|-------------------------|---------|
D |-----------------12-14------------------|-------------------------|---------|
A |-----------12-14------------------------|-------------------------|---------|
E |--12-14-15------------------------------|-------------------------|---------|
                                            |----------6X----------|

E |--18-20-21-20-18----19-------------------|---------------------|
B |-----------------21----21-20-21-20-18----|---------------------|
G |--------------------------------------20-|--20^22-20^20-20^22--|
D |-----------------------------------------|---------------------|
A |-----------------------------------------|---------------------|
E |-----------------------------------------|---------------------|
   |------------------3X------------------|

E |-----12-15-12-|--19p15-----|--17p14-----|--21p17-----|--22^-22^--|
B |--15----------|--------17--|--------15--|--------17--|-----------|
G |--------------|------------|------------|------------|-----------|
D |--------------|------------|------------|------------|-----------|
A |--------------|------------|------------|------------|-----------|
E |--------------|------------|------------|------------|-----------|
   |----6X-----|
                              FIM DO SOLO 2





E |---------------------||---------------------------------| 12x
B |---------------------||---------------------------------|
G |---------------------||---------------------------------|
D |---------------------||--10/9--------------------10-10--|
A |---------------------||---8/7---------------------8--8--|
E |--0-0-0-0-0-0-0-0-0-0||---------0-0-0-0-0-0-0-0-0-------|7:02

E |---------------------------------------------------------------|---------|
B |---------------------------------------------------------------|---------|
G |---------------------------------------------------------------|---------|
D |---------------------------------------------------------5h7---|5---7-5--|
A |--5h7-5h7-5h7-5h7-5h7-5h7-5h7-----5h7-5h7-5h7-5h7-----5h7------|3-5-5-3--|
E |--0---0---0---0---0---0---0---7-6-0---0---0---0---7-6----------|----3----|

                                      Fim Da Musica
Composição de Dave Mustaine / James Hetfield / Lars Ulrich
631 exibições
    • ½ Tom
    • A
    • Bb
    • B
    • C
    • Db
    • D
    • Eb
    • E
    • F
    • F#
    • G
    • Ab
  • Adicionar à lista

    0 comentários

    Ver todos os comentários

    Conseguiu tocar?

    0 Tocaram 0 Ainda não

    Grave um vídeo tocando The Four Horsemen e nos envie!

    00:00 / 00:00
    outros vídeos desta música
    repetir qualidade Automático
    Outros vídeos desta música
    00:00 / 00:00
    Automático

    Cifra Club Pro

    Aproveite o Cifra Club com benefícios exclusivos e sem anúncios
    Cifra Club Pro
    Aproveite o Cifra Club com benefícios exclusivos e sem anúncios
    OK