Notificações Amigos pendentes

      Metallica

      The Four Horsemen

      15.627 exibições
      INTRO
                                          |   2x           |
      C |X---X---X---X---|C---------------|----------------|
      B |0---0---0---0---|0---------------|----------------|
      
                     |  2x           |
      C |----C-------C---|----------------|X---X---X---X---|
      B |----0-------0---|----------------|0---0---0---0---|
      
                          |  2x            |
      C |C---------------|----------------|----C-------C---|
      B |0---------------|----------------|----0-------0---|
      
        |   2x           |
      C |----------------|X---X---X-------|X---------------|
      H |----------------|----------------|----x---x---x---|
      S |----------------|------------f---|----o-------o---|
      B |----------------|0---0---0-0-----|0-0-----0-0-----|
      
        |             2x              |
      C |----------X---|--------------|---X------X---|
      H |x--x---x------|x--x---x--x---|x------x------|
      S |---o------o---|---o------o---|---o------o---|
      B |ttt----ttt----|ttt----ttt----|ttt----ttt----|
      
      Verse 1
                        |             2x              | 
      C |X--------------|----------X---|--------------|-----------X---|
      H |----x---x--x---|x--x---x------|x--x---x--x---|x--x---x-------|
      S |----o------o---|---o------o---|---o------o---|---o-------o---|
      B |0-------ttt----|ttt----ttt----|ttt----ttt----|ttt----ttt-----|
      
                                         |           2x                |
      C |----X-------X---|X--------------|----------X---|--------------|
      H |x-------x-------|----x---x--x---|x--x---x------|x--x---x--x---|
      S |----o-------o---|----o------o---|---o------o---|---o------o---|
      B |0-0-----0-0-----|0-------ttt----|ttt----ttt----|ttt----ttt----|
      
      C |----------X---|----X-------X---|
      H |x--x---x------|x-------x-------|
      S |---o------o---|----o-------o---|
      B |ttt----ttt----|0-0-----0-0-----|
      
      Chorus
                         |              2x                 |
      C |X---------------|----------------|----X-----------|----X-----------|
      H |----x---x---x---|x---x---x---x---|x-------x---x---|x-------x---x---|
      S |----o-------o---|----o-------o---|----o-------o---|----o-------o---|
      B |0-------0-0-----|0-0-----0-0-----|0-0-----0-0-----|0-0-----0-0-----|
      
      T1|oooo------------|
      T2|----oooo--------|
      T3|--------oooo----|
      T4|------------oooo|
      B |0---0---0-------|
      
                         |               2x                |
      C |X---X-----------|----------------|----X-----------|X---X---X-------|
      H |--------x---x---|x---x---x---x---|x-------x---x---|----------------|
      S |----o-------o---|----o-------o---|----o-------o---|----o-------f---|
      B |0-------0-0-----|0-0-----0-0-----|0-0-----0-0-----|0---0---0-0-----|
      
                         |    2x          |                |   2x           |
      C |X---------------|----------------|----X-------X---|----------------|
      R |----^---^---^---|^---^---^---^---|^-------^-------|^---^---^---^---|
      S |--------o-------|--------o-------|----o-------o---|--------o-------|
      B |0-----0-0-------|0---0-0---------|0-0-----0-0-----|0-----0-0-------|
      
                                          |    2x          |
      C |X---X---X---X---|X---------------|----------------|----X-------X---|
      R |----------------|----^---^---^---|^---^---^---^---|^-------^-------|
      S |----o-------o---|--------o-------|--------o-------|----o-------o---|
      B |0-0-----0-0-----|0-----0-0-------|0---0-0---------|0-0-----0-0-----|
      
      C |----------------|----------------|X---X---X---X---|
      R |^---^---^---^---|^---^---^---^---|----------------|
      S |--------o-------|--------o-------|----o-------o---|
      B |0-----0-0-------|0---0-0---------|0-0-----0-0-----|
      
      REPEAT VERSE 1 FOR VERSE 2
      
      REPEAT CHORUS
      
      Part A
            				      |    6x          |
      C |X---------------|C---------------|----------------|--------X---X---|
      H |----x---x---x---|----------------|----------------|----------------| 
      S |----------------|----------------|----------------|------o---------|
      B |0---------------|0---------------|----------------|--------0---0---|
      
      REPEAT PART A
      
      Part B
      C |X---------------|------------X---|----------------|--------X---X---|
      H |----x---x---x---|x---x---x-------|x---x---x---x---|x---x-----------|
      S |----o-------o---|----o-------o---|----o-------o---|----o-------o---|
      B |0-------0-0-----|0-0-----0-0-----|0-0-----0-0-----|0-0-----0-------|
      
      REPEAT PART 2
      
      Part C
                         |                2x               |
      C |X---------------|------------X---|----------------|--------X---X---|
      H |----x---x---x---|x---x---x-------|x---x---x---x---|x---x-----------|
      S |----o-------o---|----o-------o---|----o-------o---|----o-------o---|
      B |0-------0-0-----|0-0-----0-0-----|0-0-----0-0-----|0-0-----0-0-----|
      
      C |X---------------|----------------|
      H |----x---x---x---|x---x---x---x---|
      S |----o-------o---|----o-------o---|
      B |0-------0-0-----|0-0-----0-0-----|
      
      Part D (Half Time)
      C |X--X--X--X--|      |X--X--|
      S |-tt--t--t-tt|   2/4|--t-tt|
      B |0--0--0--0--|      |0--0--|
      
      Part E ( New tempo about 165.  Strait 8ths)
      C |C-----X---X-----|X---------------|
      H |----------------|----x---x---x---|
      S |-------------o--|----o-------o---|
      B |0-----0---0-----|0---------0-----|
      
      C |-----------------|----------------|            |-----------------|
      H |x---x---x----x---|x---x---x---x---|  Repeat 3x |x---x---x----x---| 
      S |----o--------o---|----o-------o---|            |----o--------o---|
      B |--0-------ttt----|--0-------0-----|            |--0-------ttt----|
      
      C |----X-----------|----------------|
      H |x-------x---x---|x---x---x---x---|  Repeat 4x
      S |----o-------o---|----o-------o---|
      B |--0-------0-----|--0-------0-----|
      
      Bridge
      C |X---------------|----------------|----------------|----------------|
      H |----x---x---x---|x---x---x---x---|x---x---x---x---|x---x---x---x---|
      S |----o-------o---|----o-------o---|----o-------o---|----o-------o---|
      B |0-------0-------|0-----0---0-----|0-------0-------|0-----0---0-----|
      
        |                      R e p e a t    3x        			    |
      H |x---x---x---x---|x---x---x---x---|x---x---x---x---|x---x---x---x---|
      S |----o-------o---|----o-------o---|----o-------o---|----o-------o---|
      B |0-------0-------|0-----0---0-----|0-------0-------|0-----0---0-----|
      
      Part F (Half time about 103)
      C |X--X--X--X--|X--X--X--X--|
      S |-oo-oo-oo-oo|-oo-oo-oo-oo|
      B |0--0--0--0--|0--0--0--0--|
      
      Part G (Slower.  About 90)
      C |X-----------------|--------------X-|X-------------------|
      H |--x-x-x-x-x---x-x-|x-x-x-x-x-x-x---|--x---x-x-x-x---x-x-|
      S |----o---------o---|----o---o---o---|------o---------o---|
      B |0-------0--ttt----|0--0-----0-0--0-|0-ttt-----0-ttt--0--|
      
      C |--------------X-|X-----------------|---------------X-|
      H |x-x-x-x-x-x-x---|--x---x-x-x-x-x-x-|x-x--x-x---------|
      S |----o---o-----o-|------o-------o---|-----o---o-o-----|
      T1|----------------|------------------|-------------oo--|
      B |0--0-----0-0-0--|0-ttt-----00-0----|0-ttt---0------0-|
      C |X-----------------|------------------X-|
      H |--x-x-x-x-x---x-x-|x-x---x-x-----------|
      S |----o---------o---|------o-----------o-|
      T3|------------------|------------o-o-o---|
      T4|------------------|------------o-o-o---|
      B |0-------0--ttt----|0-ttt----ttt-D-D-0--|
      
      Guitar Solo
      C |X-----------------|--------------X-|X-----------------|
      H |--x-x-x-x-x---x-x-|x-x-x-x-x-x-x---|--x---x-x-x-x-x-x-|
      S |----o---------o---|----o-------o---|------o-------o---|
      B |0-------0--ttt----|00-0----0--0--0-|0--ttt----00-0----|
      
      C |--------------X-|X-----------------|--------------X-|
      H |x-x-x-x---------|--x-x-x-x-x---x-x-|x-x-x-x-x-x-x---|
      S |----o---o-o-----|----o---------o---|----o---o-----o-|
      T1|------------oo--|------------------|----------------|
      B |0--0---0------0-|0-------0--ttt-0--|00-0-----0-0-0--|
      
      C |X-------------------|------------------|X-----------------|
      H |--x---x-x-x-x---x-x-|x-x---x-x-x-------|--x-x-x-x-x---x-x-|
      S |------o---------o---|------o---o-------|----o---------o---|
      T1|--------------------|------------oo----|------------------|
      T2|--------------------|--------------ooo-|------------------|
      B |0-ttt-----0--ttt-0--|0--ttt---0--------|0-------0--ttt-0--|
      
      C |----------------X-|X---------------|--------XXX-XXX-|
      H |x-x---x-x-x-x-x---|--x-x-x-x-x-x-x-|x-x-x-x---------|
      S |------o-------o---|----o-------o---|----o-----------|
      B |0--ttt-0--0--0--0-|0--0----0-00-0--|0--0----000-000-|
      
      C |X-----------------|     |----X-----|
      H |--x-x-x-x-x---x-x-|  2/4|x-x---x---|
      S |----o---------o---|     |----o-----|
      B |0-------0--ttt-0--|     |00-0---ttt|
       
      C     |X---X---X---X-|
      S 2/4 |o-oo--oo--oo--| Note: 32nd notes
      B     |----0---0---0-|
      
      C |X-----------------|    |--------|    |X---X---X---X---|
      H |--x-x-x-x-x---x-x-| 2/4|x-x-x-x-| 4/4|----------------|
      S |----o---------o---|    |----o---|    |--o---o---o---o-|
      B |0-------0--ttt----|    |0-00----|    |0---0---0---0---|
      
      C |C---------------|
      S |--------------f-|
      B |0---------------|
      
      Part H (First tempo.  About 205)
      C |X---------------|------------X---|----------------|
      H |----x---x---x---|x---x---x-------|x---x---x---x---|
      S |----o-------o---|----o-------o---|----o-------o---|
      B |0-------0-0-----|0-0-----0-0-----|0-0-----0-0-----|
      
      
      
         _________________ ________________
        | 1. 2. 3.        |  4.            |
      C |---------X---X---|----------------|
      H |x---x------------|x---x---x---x---|
      S |----o--------o---|----o-------o---|
      B |0-0------0-------|0-0-----0-0-----|
       
      REPEAT F
      
      Part I   
                         |     2x         |                |       2x       |
      C |C---------------|----------------|----C-------C---|----------------|
      B |0---------------|----------------|----0-------0---|----------------|
      
         			 |   6x           |
      C |X---X---X---X---|C-------C-------|X---X---X-------|
      S |----------------|----------------|------------f---|
      B |0---0---0---0---|0-------0-------|0---0---0-0-----|
      
      REPEAT VERSE 1 FOR VERSE 3
      
      Chorus
      		 	 |             3x                  |
      C |X---------------|----------------|----X-----------|
      H |----x---x---x---|x---x---x---x---|x-------x---x---|
      S |----o-------o---|----o-------o---|----o-------o---|
      B |0-------0-0-----|0-0-----0-0-----|0-0-----0-0-----|
      
      T1|oooo------------|
      T2|----oooo--------|
      T3|--------oooo----|
      T4|------------oooo|
      B |0---0---0-------|
      
      			 |             2x	                 |
      C |X---X-----------|----------------|----X-----------|X---X---X-------|
      H |--------x---x---|x---x---x---x---|x-------x---x---|----------------|
      S |----o-------o---|----o-------o---|----o-------o---|----o-------f---|
      B |0-------0-0-----|0-0-----0-0-----|0-0-----0-0-----|0---0---0-0-----|
      
      			 |    2x          |                |        2x      |
      C |X---------------|----------------|----X-------X---|----------------|
      R |----^---^---^---|^---^---^---^---|^-------^-------|^---^---^---^---|
      S |--------o-------|--------o-------|----o-------o---|--------o-------|
      B |0-----0-0-------|0---0-0---------|0-0-----0-0-----|0-----0-0-------|
      
      						|    2x  	     |
      C |X---X---X---X---|X---------------|----------------|----X-------X---|
      R |----------------|----^---^---^---|^---^---^---^---|^-------^-------|
      S |----o-------o---|--------o-------|--------o-------|----o-------o---|
      B |0-0-----0-0-----|0-----0-0-------|0---0-0---------|0-0-----0-0-----|
      
      C |----------------|----------------|X---X---X---X---|X---------------|
      R |^---^---^---^---|^---^---^---^---|----------------|----------------|
      S |--------o-------|--------o-------|----o-------o---|----------------|
      B |0-----0-0-------|0---0-0---------|0-0-----0-0-----|0---------------|
      
        |               R E P E A T          3x                             |
      C |X---------------|------------X---|----------------|--------X---X---|
      H |----x---x---x---|x---x---x-------|x---x---x---x---|x---x-----------|
      S |----o-------o---|----o-------o---|----o-------o---|----o-------o---|
      B |0-------0-0-----|0-0-----0-0-----|0-0-----0-0-----|0-0-----0-------|
      
      C |X---------------|------------X---|-----------------|
      H |----x---x---x---|x---x---x-------|x---x---x---x----|
      S |----o-------o---|----o-------o---|----o-------o----|
      B |0-------0-0-----|0-0-----0-0-----|0-0-----0-0---ttt|
      
      C |X----X----X----X----|
      S |o----o----o----o----|
      B |--ttt--ttt--ttt--ttt|
      
      Guitar Solo 2
      C |X---------------|------------X---|----------------|--------X---X---|
      H |----x---x---x---|x---x---x-------|x---x---x---x---|x---x-----------|
      S |----o-------o---|----o-------o---|----o-------o---|----o-------o---|
      B |0-------0-0-----|0-0-----0-0-----|0-0-----0-0-----|0-0-----0-------|
      
      C |X---------------|------------X---|
      H |----x---x---x---|x---x---x-------|
      S |----o-------o---|----o-------o---|
      B |0-------0-0-----|0-0-----0-0-----|
        
         _________________________________
        |   1. 3.                         |
      C |----------------|--------X---X---|
      H |x---x---x---x---|x---x-----------|
      S |----o-------o---|----o---o---o---|
      B |0-0-----0-0-----|0-0---0-0-0-0---|
      
         _____________________________________ ________________
        | 2.					    |  4.            |
      C |-----------------|---------------X---|X---------------|
      H |x---x---x---x----|-------------------|----x---x---x---|
      S |----o-------o----|f----f----f----o---|----o-------o---|
      B |0-0-----0-0---ttt|--ttt--ttt--ttt----|0-0-----0-0---0-|
      
      						|     2x	     |
      C |----------------|X---X-----------|----------------|----X-------X---|
      R |----------------|--------^---^---|^---^---^---^---|^-------^-------|
      S |oooooooooooooooo|----o-------o---|----o-------o---|----o-------o---|
      B |----------------|0-------0-0-----|0-0-----0-0-----|0-0-----0-0-----|
      
      C |----------------|----------------|X---X---X---X---|C---------------|
      R |^---^---^---^---|^---^---^-------|----------------|----------------|
      S |----o-------o---|----o-------f---|----------------|----------------|
      B |0-0-----0-0-----|0-0-----0-0-----|0---0---0---0---|0---------------|
      
      THE END
      
      
      
      
      
        Composição: Dave Mustaine / James Hetfield / Lars UlrichColaboração e revisão:
        • Vinicius

        Comentários 0

        140 .
        140 cancelar

        conseguiu tocar?

        Nícolas Lopes497 visualizações
          ver covers de outras músicas »
          0:00 / 0:00

          Capítulos

            2 versões de violão dificuldade exibições contribuição e correção
            2 versões de guitarra dificuldade exibições contribuição e correção
            2 versões de cavaco dificuldade exibições contribuição e correção
            2 versões de teclado dificuldade exibições contribuição e correção
            2 versões de baixo exibições contribuição e correção
            1 versão de bateria exibições contribuição e correção
            1 versão de Guitar Proformatodownloadscontribuição
            play/pausefechar subir/descer velocidade
            6ª corda E5ª corda A4ª corda D3ª corda G2ª corda B1ª corda E
              acordes
              publicidade
              fechar
              ok