Cifra Club

Aprenda

The House Jack Built

Metallica

Tab de baixo: Principal
Riff 1
Gb|-----------------------------------|----------------------------------|
Db|-----------------------------------|----------------------------------|
Ab|------------7-------7------7-7-5---|------7-----------7-------7-7-5---|
Eb|-0----0h5h7-----0------0-0---------|-0--------0-0-0-0-----0-0---------|

Gb|--------------------------------|---------------------------------|
Db|--------------------------------|-------------------------3-3-----|
Ab|----7-----------7---------------|---0h3---------------------------|
Eb|-0------0-0-0-0-----0-0-0-0-1---|---------5---3---3---1-1-----0---|

Gb|-----------------------------------|----------------------------------|
Db|-----------------------------------|----------------------------------|
Ab|------------7-------7------7-7-5---|------7-----------7-------7-7-5---|
Eb|-0----0h5h7-----0------0-0---------|-0--------0-0-0-0-----0-0---------|

Gb|--------------------------------|-------------------------------||
Db|--------------------------------|-------------------------3-3---||
Ab|----7-----------7---------------|---0h3-------------------------||
Eb|-0------0-0-0-0-----0-0-0-0-1---|---------5---3---3---1-1-------||

Riff 2
Gb|--------------------|----|----------------------------------||3x
Db|--------------------|-3x-|----------------------------------||
Ab|-77-----77----------|----|----------------------------------||
Eb|-66-0-0-66-0-0-00-0-|----|-0h2-2-2-2/3-3-3-3/5-5-5-5-/6-6-6-||

Riff 3
Gb|---------------------------------------------------||4x
Db|---------------------------------------------------||
Ab|---------------------------------------------------||
Eb|-1-------3-----------------------------------------||

Play Riff 2 [4x]
Composição de James Hetfield / Kirk Hammett / Lars Ulrich
Colaboração e revisão:
  • Luan Gonçalves
1.947 exibições

0 comentários

Ver todos os comentários

Conseguiu tocar?

0 Tocaram 0 Ainda não

Grave um vídeo tocando The House Jack Built e nos envie!

00:00 / 00:00
outros vídeos desta música
repetir qualidade Automático
Outros vídeos desta música
00:00 / 00:00
Automático

Cifra Club Pro

Aproveite o Cifra Club com benefícios exclusivos e sem anúncios
Cifra Club Pro
Aproveite o Cifra Club com benefícios exclusivos e sem anúncios
OK