Cifra Club

Aprenda

The Judas Kiss

Metallica

Tab de baixo: Principal
|----------------------------------|--------------------------|
|----------------------------------|--------------------------|
|----------------------------------|--------------------------|
|--0---3---0-0-0-0--3--5-(5)-------|--0---3---0-0-0-0--3--5\--|

|----------------------------------|
|----------------------------------|
|----------------------------------|
|--0---3---0-0-0-0--3--5-(5)-------|

|-----------------------------------------------------------------------|
|-----------------------------------------------------------------------|
|--2-------3-------0-------2---------------2-------3-------5-------5----|
|----0-0-0---0-0-0---0-0-0---0-0-0-1---0-----0-0-0---0-0-0---0-0-0----0-|

-----------------------------|
-----------------------------|
-----------------------------|
-1--2--3--0---0---0---0---0--|

|--------------------------------------|
|-*----------------------------------*-|
|-*7/8--------7/8--------------------*-|
|------0---0------0---0--0-0-0--0-0-0--|

|-------------------------------|----------------------------------------|
|-*---------------------------*-|----------------------------------------|
|-*9-----9--------------------*-|--9-----9-----------------9----9--------|
|-----9-----8--8--8-8-8--8-8-8--|-----9-----8--8--8--8--8-----9--8\3-2-3-|

---|-------------------------------------------|------------------------|
---|-*---------------------------------------*-|-*----------------------|
---|-*---------------------------------------*-|-*----------------------|
p--|--0-0-3ph3p--0-0-3ph3--0-0--3ph5ph3ph5ph3p-|--0-0-0-0--3p--0-0-0-0--|

-----------------------------|-----------------------------------------|
---------------------------*-|-----------------------------------------|
---------------------------*-|--7--7--7--7--7--7--10--10--10--10--10-10|
3p--0-0-0-0--3ph5ph3ph5ph3p--|-----------------------------------------|

|-----------------------------------------|------------------------------|
|-----------------------------------------|-*----------------------------|
|-----------------------------------------|-*----------------------------|
|--3p--0-0-0-0--3p--0-0-0-0--3p--0-0-0-0--|--0-0-0-0--3p--0-0-0-0--3p--0-|

------------------------|--------------------------------------------|
----------------------*-|--------------------------------------------|
----------------------*-|--7--7--7--7--7--7--10--10--10--10--10--10--|
-0-0-0--3ph5ph3ph5ph3p--|--------------------------------------------|

|-----------------------------------------------------------------------|
|-----------------------------------------------------------------------|
|-------------------------------------------------------------------7-7-|
|-3p--0-0-0-0--3p--0-0-0-0--3p--0-0-0-0-0-0-0-0--0-3--0-3--0-3--0-3-----|

--------------------------------|----------------------------------------|
--------------------------------|-*--------------------------------------|
7-7--------------------7-7-7-7--|-*5h7-------5h8-------5h6-------5h6-----|
----0-3--0-3--0-3--0-3----------|------0-0-0-----0-0-0-----0-0-0-----0-0-|

---|--------------------------------|------------------------------------|
-*-|--------------------------------|*-----------------------------------|
-*-|--------------------------------|*5h7-------5h8-------5h6-------5h6--|
-0-|5-5-5-5-5-5-5-5-5-5-5-5-5-5-5-5-|----0-0-0-----0-0-0-----0-0-0-----0-|

------|-------------------------------------------------|----------------|
----*-|-------------------------------------------------|----------------|
----*-|-------------------------------------------------|----------------|
-0-0--|-5-5-5-5-5-5-5-5-5-5-5-5-5-5-5-5-5-5-5-5-5-5-5-5-|--0-3--0-3--0-3-|

---------------------------------------------------------------|
---------------------------------------------------------------|
------7-7-7-7--------------------7-7-7-7-----------------------|
--0-3---------0-3--0-3--0-3--0-3----------0--2--2----2--3--3\--|

|--------------------------------------|
|-*----------------------------------*-|
|-*7/8--------7/8--------------------*-|
|------0---0------0---0--0-0-0--0-0-0--|

|-------------------------------|----------------------------------------|
|-*---------------------------*-|----------------------------------------|
|-*9-----9--------------------*-|--9-----9-----------------9----9--------|
|-----9-----8--8--8-8-8--8-8-8--|-----9-----8--8--8--8--8-----9--8\3-2-3-|

---|-------------------------------------------|------------------------|
---|-*---------------------------------------*-|-*----------------------|
---|-*---------------------------------------*-|-*----------------------|
p--|--0-0-3ph3p--0-0-3ph3--0-0--3ph5ph3ph5ph3p-|--0-0-0-0--3p--0-0-0-0--|

-----------------------------|-----------------------------------------|
---------------------------*-|-----------------------------------------|
---------------------------*-|--7--7--7--7--7--7--10--10--10--10--10-10|
3p--0-0-0-0--3ph5ph3ph5ph3p--|-----------------------------------------|

|-----------------------------------------|------------------------------|
|-----------------------------------------|-*----------------------------|
|-----------------------------------------|-*----------------------------|
|--3p--0-0-0-0--3p--0-0-0-0--3p--0-0-0-0--|--0-0-0-0--3p--0-0-0-0--3p--0-|

------------------------|--------------------------------------------|
----------------------*-|--------------------------------------------|
----------------------*-|--7--7--7--7--7--7--10--10--10--10--10--10--|
-0-0-0--3ph5ph3ph5ph3p--|--------------------------------------------|

|-----------------------------------------------------------------------|
|-----------------------------------------------------------------------|
|-------------------------------------------------------------------7-7-|
|-3p--0-0-0-0--3p--0-0-0-0--3p--0-0-0-0-0-0-0-0--0-3--0-3--0-3--0-3-----|
                                 --------------------------------|----------------------------------------|
--------------------------------|-*--------------------------------------|
7-7--------------------7-7-7-7--|-*5h7-------5h8-------5h6-------5h6-----|
----0-3--0-3--0-3--0-3----------|------0-0-0-----0-0-0-----0-0-0-----0-0-|

---|--------------------------------|------------------------------------|
-*-|--------------------------------|*-----------------------------------|
-*-|--------------------------------|*5h7-------5h8-------5h6-------5h6--|
-0-|5-5-5-5-5-5-5-5-5-5-5-5-5-5-5-5-|----0-0-0-----0-0-0-----0-0-0-----0-|

------|-------------------------------------------------|----------------|
----*-|-------------------------------------------------|----------------|
----*-|-------------------------------------------------|----------------|
-0-0--|-5-5-5-5-5-5-5-5-5-5-5-5-5-5-5-5-5-5-5-5-5-5-5-5-|--0-3--0-3--0-3-|

---------------------------------------------------------------|
---------------------------------------------------------------|
------7-7-7-7--------------------7-7-7-7-----------------------|
--0-3---------0-3--0-3--0-3--0-3----------0--2--2----2--3--3\--|

|--------------------------------------|---------------------------------|
|-*----------------------------------*-|-*-------------------------------|
|-*7/8--------7/8--------------------*-|-*-9---9---------------------9---|
|------0---0------0---0--0-0-0--0-0-0--|-----9---8--8--8-8-8--8-8-8----7-|

------------------------|----------------------------|-------------------|
----------------------*-|-*------------------------*-|-*-----------------|
--9-------------------*-|-*---4-----3------1-------*-|-*-9-----9---------|
----6--6--6-6-6--6-6-6--|--2-----2-----3-2---2p-0-0--|------9-----8--7-6-|

------------|
----------*-|
-5---7----*-|
-------0-0--|

|-----------------------------------------------------------------------|
|-----------------------------------------------------------------------|
|--2-------3-------0-------2---------------2-------3-------5-------5----|
|----0-0-0---0-0-0---0-0-0---0-0-0-1---0-----0-0-0---0-0-0---0-0-0----0-|

-------------------------|--------------------|-----------------|
-------------------------|-*----------------*-|-*-------------*-|
-------------------------|-*----------------*-|-*-------------*-|
-1--2--3--0---0---0---0--|--0-0--0-0---0---0--|--0---0---0---0--|

|-----|--------------------------|---------------------------------------|
|-----|-*----------------------*-|---------------------------------------|
|-----|-*----------------------*-|---------------------------------------|
|--0--|--0---3---0-0-0-0--3--5\--|--0---3---5-5-5--5-5-5--5---5-5-5--5-5-|

-----------------------------------------|-----|-------------------------|
-----------------------------------------|-----|-*-----------------------|
-----------------------------------------|-----|-*-----------------------|
-5---5-5-5--5-5-5--5---5-5-5--5-5-5--7---|--0--|--0---3---0-0-0-0--3--5\-|

----|---------|------------------|-------------------------------------|
-*--|---------|-*--------------*-|-------------------------------------|
-*--|---------|-*--------------*-|-------------------------------------|
----|--0---3--|-5-5-5--5-5-5--5--|--5-5-5--5-5-5--5-5-5--5-5-5--5-5-5-5|

|-------------------------------|--------------------------|-------------|
|-*---------------------------*-|-*----------------------*-|-------------|
|-*---4-----3--------1--------*-|-*9---9--------5--7-----*-|--9-----9----|
|--2-----2-----3--2----2p--0-0--|----9---8--7-6-------0-0--|-----9-----8-|

-|--------|----------|-----------------|-------------------------------|
-|-*----*-|----------|-*-------------*-|-------------------------------|
-|-*----*-|--9---9---|-*-------------*-|-------------------------------|
-|--0--0--|----9---8-|-8--8-8-8--8-8-8-|-8--8-8-8-8--8-8-8--8-8-8--8-8-|

|-----------------------------------------------------|
|-*-------------------------------------------------*-|
|-*7/8------7/8----------------7/8------7/8---------*-|
|------0--0-----0-0-0-0--0-0-0-----0--0-----4p-3p-2p--|

|----------------------------|-------------------------------|
|-*------------------------*-|-*---------------------------*-|
|-*---4-----3------1-------*-|-*-------------------7-7-7-7-*-|
|--2-----2-----3-2---2p-0-0--|--0-3--0-3--0-3--0-3-----------|

|------------------------------------|
|*-----------------------------------|
|*5h7-------5h8-------5h6-------5h6--|
|----0-0-0-----0-0-0-----0-0-0-----0-|

------|----------------------------|--------------------------------|
----*-|----------------------------|-*----------------------------*-|
----*-|----------------------------|-*----7-----7h8-----8-----8h7-*-|
-0-0--|-5-5-5-5-5-5-5-5-5-5-5-5-5--|--0-0---0-0-----0-0---0-0-------|

|-------------------------|------------------------------|
|-*---------------------*-|-*--------------------------*-|
|-*---------------------*-|-*--------------------------*-|
|--3-2-1-3-3-3-3-3-3-3-3--|--3-2-1--3-2-1--3-2-1--3-2-1--|

|-------------------------|
|-------------------------|
|---------------------7-7-|
|--0-3--0-3--0-3--0-3-----|

--------------------------------|----------------------------------------|
--------------------------------|-*--------------------------------------|
7-7--------------------7-7-7-7--|-*5h7-------5h8-------5h6-------5h6-----|
----0-3--0-3--0-3--0-3----------|------0-0-0-----0-0-0-----0-0-0-----0-0-|

---|--------------------------------|------------------------------------|
-*-|--------------------------------|*-----------------------------------|
-*-|--------------------------------|*5h7-------5h8-------5h6-------5h6--|
-0-|5-5-5-5-5-5-5-5-5-5-5-5-5-5-5-5-|----0-0-0-----0-0-0-----0-0-0-----0-|

------|-------------------------------------------------|----------------|
----*-|-------------------------------------------------|----------------|
----*-|-------------------------------------------------|----------------|
-0-0--|-5-5-5-5-5-5-5-5-5-5-5-5-5-5-5-5-5-5-5-5-5-5-5-5-|--0-3--0-3--0-3-|

---------------------------------------------------------------|
---------------------------------------------------------------|
------7-7-7-7--------------------7-7-7-7-----------------------|
--0-3---------0-3--0-3--0-3--0-3----------0--2--2----2--3--3\--|

|--------------------------------------|
|-*----------------------------------*-|
|-*7/8--------7/8--------------------*-|
|------0---0------0---0--0-0-0--0-0-0--|

|----------------------------|--------------------|
|-*------------------------*-|--------------------|
|-*---4-----3------1-------*-|-----4-----3--------|
|--2-----2-----3-2---2p-0-0--|--2-----2-----0--0--|
Composição de James Hetfield / Kirk Hammett / Lars Ulrich / Robert Trujillo
Colaboração e revisão:
  • Viviane Lemos
361 exibições

0 comentários

Ver todos os comentários

Conseguiu tocar?

0 Tocaram 0 Ainda não

Grave um vídeo tocando The Judas Kiss e nos envie!

00:00 / 00:00
outros vídeos desta música
repetir qualidade Automático
Outros vídeos desta música
00:00 / 00:00
Automático

Cifra Club Pro

Aproveite o Cifra Club com benefícios exclusivos e sem anúncios
Cifra Club Pro
Aproveite o Cifra Club com benefícios exclusivos e sem anúncios
OK