Cifra Club

Aprenda

The Unnamed Feeling

Metallica

Cifra: Principal (violão e guitarra)
tom: E
Guitars 1-3 Dropped D and tuned down a step (Dropped C)
Guitar 4 is tuned to Dropped A


Riff 1A (Guitar 1)
d------------------------------------------------------------
A------------------------------------------------------------
F------------------------------------------------------------
C--0----------------------0----------------------------------
G--0--0m---0m-0m-0m-0m----0--0m---0m-0m-0m-0m----------------
C--0--0m---0m-0m-0m-0m----0--0m---0m-0m-0m-0m----------------

Riff 1B (Guitar 2)
d------------------------------------------------------------
A------------------------------------------------------------
F------------------------------------------------------------
C------0--0-------5--5-------0--0---------3---3--------------
G----0----------3----------0--------2/3-3---3----------------
C--0----------3----------0----------2/3---------3\2----------

Riff 1C (Guitar 3)
d------------------------------------------------------------
A------------------------------------------------------------
F------------------------------------------------------------
C------------------------------------------------------------
G--0m-0m--0m-0m----0m--0m-0m----0m-0m--0m-0m----0m--0m-0m----
C--0m-0m--0m-0m----0m--0m-0m----0m-0m--0m-0m----0m--0m-0m----

Riff 1D (Guitar 3)
d------------------------------------------------------------
A------------------------------------------------------------
F------------------------------------------------------------
C------------------------------------------------------------
G--0m-0m--0m-0m----------0m--0m-0m---------------------------
C--0m-0m--0m-0m---2\1----0m--0m-0m---2\1---------------------


Riff 2A (Guitar 1)
d------------------------------------------------------------
A------------------------------------------------------------
F------------------------------------------------------------
C--8----7----0----8----7----0----8----7----0----8----7----0--
G--8----7----0----8----7----0----8----7----0----8----7----0--
C--8----7----0----8----7----0----8----7----0----8----7----0--

Riff 2B (Guitar 2)
d------------------------------------------------------------
A------------------------------------------------------------
F------------------------------------------------------------
C-----------------------------------------------0------------
G---0m-0m----0m-0m---/12-----0m-0m----0m--0m----0------------
C---0m-0m----0m-0m---/12-----0m-0m----0m--0m----0------------

Riff 2C (Guitar 2)
d------------------------------------------------------------
A------------------------------------------------------------
F------------------------------------------------------------
C--8----7---------8----7----0----8----7---------8----7----0--
G--8----7---/12---8----7----0----8----7---/12---8----7----0--
C--8----7---/12---8----7----0----8----7---/12---8----7----0--


Riff 3A (Guitar 1)
d------------------------------------------------------------
A------------------------------------------------------------
F------------------------------------------------------------
C------------------------------------------------------------
G--0m-0m-----------------------------------------------------
C--0m-0m--2\1--(x8 then:)----8^---7^-------------------------

Riff 3A (Guitar 2)
d------------------------------------------------------------
A------------------------------------------------------------
F------------------------------------------------------------
C----------------------------8----7--------------------------
G--0m-0m--7\6----------------8----7--------------------------
C--0m-0m-------(x8 then:)----8----7--------------------------


Verse 1A (Guitar 1)
d------------------------------------------------------------
A------------------------------------------------------------
F------------------------------------------------------------
C------------------------------------------------------------
G--0m-0m--0m-0m----------0m--0m-0m----------0m-0m--0m-0m-----
C--0m-0m--0m-0m---2\1----0m--0m-0m---2\1----0m-0m--0m-0m-----

(continued)
d------------------------------------------------------------
A------------------------------------------------------------
F------------------------------------------------------------
C---------------------8----7---------------------------------
G---------0m--0m-0m---8----7---------------------------------
C--2\1----0m--0m-0m---8----7---------------------------------

Verse 1B (Guitar 2)
d------------------------------------------------------------
A------------------------------------------------------------
F------------------------------------------------------------
C------------------------------------------------------------
G--0m-0m--0m-0m--8m-8m-5m-5m--0m-0m--8m-5m--0m-0m--0m-0m-----
C--0m-0m--0m-0m---------------0m-0m---------0m-0m--0m-0m-----

(continued)
d------------------------------------------------------------
A------------------------------------------------------------
F------------------------------------------------------------
C------------------------------------------------------------
G--8m-5m-8m-5m--0m-0m---/------------------------------------
C---------------0m-0m---/-8^----7^---------------------------


Verse 2A (Guitar 1)
d------------------------------------------------------------
A------------------------------------------------------------
F------------------------------------------------------------
C--------------------------8----7----------------------------
G--0m-0m-------------------8----7----------------------------
C--0m-0m--2\1--(x8 then:)--8----7----------------------------

Verse 2B (Guitar 2)
d------------------------------------------------------------
A------------------------------------------------------------
F------------------------------------------------------------
C--------------------------8----7----------------------------
G--0m-0m--7\6--------------8----7----------------------------
C--0m-0m-------(x8 then:)--8----7----------------------------


Chorus 1A (Guitar 1)
d------------------------------------------------------------
A------------------------------------------------------------
F------------------------------------------------------------
C--------0--0-----------5--5-----------3--3------------------
G----0--------------3--------------3--------------8------7---
C--0---0------0---3---3-------3--3---3------3---8---8--7---5-

(continued)
d------------------------------------------------------------
A------------------------------------------------------------
F------------------------------------------------------------
C-----------10--10--------------10--10-----------------------
G-----10------------------10---------------------------------
C--10----10--------10--10----10---------10-------------------

Chorus 1B (Guitar 2)
d------------------------------------------------------------
A------------------------------------------------------------
F--------7--7-----------7--7----------5--5----3-3-3-2-2-2----
C----7--------------5-------------5--------------------------
G--5---5------5-\-3---3------3--3---3------3-----------------
C------------------------------------------------------------

(continued)
d------------------------------------------------------------
A------------------------------------------------------------
F--0-0-0-/5-5-5-7-7-5----------------------------------------
C------------------------------------------------------------
G------------------------------------------------------------
C------------------------------------------------------------


Fill 1
d------------------------------------------------------------
A------------------------------------------------------------
F------------------------------------------------------------
C--------0--0-----------5--5-----------3--3----------2--2----
G----0--------------3--------------3-----------2-2-----------
C--0---0------0---3---3-------3--3---3------3--2---2------2--

(continued)
d------------------------------------------------------------
A------------------------------------------------------------
F------------------------------------------------------------
C--------3--3------------------------------------------------
G----3-------------------------------------------------------
C--3---3------3----------------------------------------------


Fill 2
d------------------------------------------------------------
A------------------------------------------------------------
F------------------------------------------------------------
C--------0--0-----------5--5-----------3--3----------2--2----
G----0--------------3--------------3-----------2-2-----------
C--0---0------0---3---3-------3--3---3------3--2---2------2--

(continued)
d------------------------------------------------------------
A------------------------------------------------------------
F------------------------------------------------------------
C--------3--3----------5--5----------------------------------
G----3-------------5-----------------------------------------
C--3---3------3--5---5------5--------------------------------


Chorus 2 (Guitar 4) 
b------------------------------------------------------------
G------------------------------------------------------------
D------------------------------------------------------------
A------------------2--0-----------------5---2--2--2----------
E--2m-2m-2m-2m--2m-2--0--2m-5m-2m-2m-0m-5---2--2--2--0m-0m---
A--2m-2m-2m-2m--2m-2--0--2m-5m-2m-2m-0m-5---2--2--2--0m-0m---

(continued)
b------------------------------------------------------------
G------------------------------------------------------------
D------------------------------------------------------------
A-----0---------------------2--0-------------------5---------
E--0m-0--0m-2m-4m-5m-4m-0m--2--0---2m-5m-2m-2m-0m--5---------
A--0m-0--0m-2m-4m-5m-4m-0m--2--0---2m-5m-2m-2m-0m--5---------


Post-Chorus
d------------------------------------------------------------
A------------------------------------------------------------
F------------------------------------------------------------
C--2-------------2-------------3-------------3---------------
G--2-2m-2m-2m-2m-2-2m-2m-2m-2m-3-3m-3m-3m-3m-3-3m-3m-3m-3m---
C--2-2m-2m-2m-2m-2-2m-2m-2m-2m-3-3m-3m-3m-3m-3-3m-3m-3m-3m---

(continued)
d------------------------------------------------------------
A------------------------------------------------------------
F------------------------------------------------------------
C--5-------------5-------------------------------------------
G--5-5m-5m-5m-5m-5-5m-5m-5m-5m-------------------------------
C--5-5m-5m-5m-5m-5-5m-5m-5m-5m-------------------------------


Riff 4A (Guitar 1)
d------------------------------------------------------------
A------------------------------------------------------------
F------------------------------------------------------------
C------------------------------------------------------------
G--0m-0m--0m-0m--8m-8m-5m-5m--0m-0m--8m-5m--0m-0m--0m-0m-----
C--0m-0m--0m-0m---------------0m-0m---------0m-0m--0m-0m-----

(continued)
d------------------------------------------------------------
A------------------------------------------------------------
F------------------------------------------------------------
C------------------------------------------------------------
G--8m-5m-8m-5m--0m-0m----------------------------------------
C---------------0m-0m----------------------------------------

Riff 4B (Guitar 2)
d------------------------------------------------------------
A--8^--\--------8^--\--------8^--\--------8^--\--------------
F------------------------------------------------------------
C------------------------------------------------------------
G------------------------------------------------------------
C------------------------------------------------------------


Riff 5A (Guitar 1)
d---------|--------------------------------------------------
A---------|--------------------------------------------------
F---------|--------------------------------------------------
C--8---7--|--3-0--0--0-0---8---7---3-0--0--0-0---8---7-------
G--8---7--|--3-0--0--0-0---8---7---3-0--0--0-0---8---7-------
C--8---7--|--3-0--0--0-0---8---7---3-0--0--0-0---8---7-------

Riff 5B (Guitar 2)
d---------|--------------------------------------------------
A---------|--------------------------------------------------
F---------|--------------------------------------------------
C---------|--------------------------------------------------
G---------|--------------------------------------------------
C--8---7--|--3-0--0--0m-0---8-0m-0m--7-0m-0m-----------------


Riff 6A (Guitar 1)
d------------------------------------------------------------
A------------------------------------------------------------
F------------------------------------------------------------
C--0m-8m-0m-7m-0m-0m---0m-8m-0m-7m-0m-0m-0m----8----7--------
G--0m-8m-0m-7m-0m-0m---0m-8m-0m-7m-0m-0m-0m----8----7--------
C--0m-8m-0m-7m-0m-0m---0m-8m-0m-7m-0m-0m-0m----8----7--------

Riff 6B (Guitar 2)
d------------------------------------------------------------
A------------------------------------------------------------
F------------------------------------------------------------
C------------------------------------------------8---7-------
G------------------------------------------------8---7-------
C--0m-8m-0m-7m-0m-0m---0m-8m-0m-7m-0m-0m-0m---/--8---7-------


Riff 7A (Guitar 1)
d------------------------------------------------------------
A------------------------------------------------------------
F------------------------------------------------------------
C--3-0--0--0-0--3-0--0--0-0--3-0--0--0-0--3-0--0--0-0--8---7-
G--3-0--0--0-0--3-0--0--0-0--3-0--0--0-0--3-0--0--0-0--8---7-
C--3-0--0--0-0--3-0--0--0-0--3-0--0--0-0--3-0--0--0-0--8---7-

Riff 7B (Guitar 2)
d------------------------------------------------------------
A------------------------------------------------------------
F------------------------------------------------------------
C------------------------------------------------------8---7-
G------------------------------------------------------8---7-
C--3-0--0--0-0--3-0--0--0-0--3-0--0--0-0--3-0--0--0-0--8---7-


Riff 8A (Guitar 1)
d------------------------------------------------------------
A------------------------------------------------------------
F------------------------------------------------------------
C------------------------------------------------------------
G--0m-0m-0m-0m-------0m-0m-0m-0m-----------------------------
C--0m-0m-0m-0m--2\---0m-0m-0m-0m--2\-------------------------

Riff 8B (Guitar 2)
d------------------------------------------------------------
A------------------------------------------------------------
F------------------------------------------------------------
C------------------------------------------------------------
G--0m-0m-0m-0m--7\---0m-0m-0m-0m--7\-------------------------
C--0m-0m-0m-0m-------0m-0m-0m-0m-----------------------------


Riff 9A (Guitar 1)                             end on
d---------------------------------------------|--------------
A---------------------------------------------|--------------
F---------------------------------------------|--------------
C---------------------------------------------|--------------
G--0m-0m-0m-0m----------0m-0m-0m-0m-----------|--------------
C--0m-0m-0m-0m--2^--3^--0m-0m-0m-0m--2^--3^---|--2^--3^------

Riff 9B (Guitar 2)
d---------------------------------------------|--------------
A---------------------------------------------|--------------
F---------------------------------------------|--------------
C---------------------------------------------|--------------
G--0m-0m-0m-0m--7^--8^--0m-0m-0m-0m--7^--8^---|--7^--8^------
C--0m-0m-0m-0m----------0m-0m-0m-0m-----------|--------------


Riff 10 (both guitars)
d------------------------------------------------------------
A------------------------------------------------------------
F------------------------------------------------------------
C------------------------------------------------------------
G--0m-0m--------0m-0m--------0m-0m--------0m-0m--------------
C--0m-0m--2\1---0m-0m--2\1---0m-0m--2\1---0m-0m--2\1---------


Outro
d------------------------------------------------------------
A------------------------------------------------------------
F------------------------------------------------------------
C--------0--0-----------5--5-----------3--3---------5--5---0-
G----0--------------3--------------3----------3/5----------0-
C--0---0------0---3---3-------3--3---3------3-3/5-5------5-0-


Riff 1A
Riff 1A, 1B
Riff 1A, 1B, 1C
Riff 1A, 1B, 1D
Riff 2A, 2B
Riff 2B, 2C
Riff 3A, 3B
Verse 1A, 1B
Verse 2A, 2B
Verse 1A, 1B
Chorus 1A, 2A (reapeat 1 and a half times)
Verse 2A, 2B
Verse 1A, 1B
Verse 2A, 2B
Verse 1A, 1B
Chorus 1A, 1B 
Fill 1
Chorus 1A, 1B
Fill 2
Chorus 2
Post-Chorus
Riff 1C, 4A, 4B
Riff 1C, 4A
Riff 1B, 1C
Riff 1C
Riff 5A, 5B
Riff 6A, 6B
Riff 5A
Riff 7A, 7B
Riff 8A, 8B
Riff 9A, 9B
Riff 10
Chorus 2
Post-Chorus (played slow)
Chorus 2
Post-Chorus
Chorus 1A, 2A
Outro
Composição de Bob Rock / James Hetfield / Lars Ulrich / Matt Hammitt
30.887 exibições
    • ½ Tom
    • A
    • Bb
    • B
    • C
    • Db
    • D
    • Eb
    • E
    • F
    • F#
    • G
    • Ab
  • Adicionar à lista

    0 comentários

    Ver todos os comentários

    Conseguiu tocar?

    0 Tocaram 0 Ainda não

    Grave um vídeo tocando The Unnamed Feeling e nos envie!

    00:00 / 00:00
    outros vídeos desta música
    repetir qualidade Automático
    Outros vídeos desta música
    00:00 / 00:00
    Automático

    Cifra Club Pro

    Aproveite o Cifra Club com benefícios exclusivos e sem anúncios
    Cifra Club Pro
    Aproveite o Cifra Club com benefícios exclusivos e sem anúncios
    OK