Cifra Club

Aprenda

Turn The Page

Metallica

Tab de baixo: Principal
* hR=half note rest qR=quarter note rest eR=eighth note rest *



~~~~~~~~~~~~~~~~~~~~~~~~~~~~~~~~~~~~~~~~~~~~~~~~~~~~~~~~~~~~~~~~~~~~~~~~

-tune guitar down 1/2 step



(verse riff)

(soft) (R1) (end R1) 

|------------|-------------|---------|-------------|-------------|

|------------|-------------|-play-R1-|-------------|-------------|

|------------|--7----------|---5x----|--7-------7--|--5-------5--|

|---------0--|----------0--|---------|-------------|-------------|



hR,qR,eR |) | | |) | | |) | | |)

/ 0-/. / o-/. / o-/. /





(end verse-riff)

|-------------|-------------|-------------|-------------|-----------|

|-------------|-------------|-------------|-------------|-----------|

|--5-------5--|--0-------0--|--0-------0--|----------7--|-----------|

|-------------|-------------|-------------|--0----------|--0--------|



| | |) | | |) | | |) | | |) 

o-/. / o-/. / o-/. / o-/. / o





(R2)

|------------|------------|------------|------------|------------|

|------------|------------|------------|------------|------------|

|------------|------------|--5---5--5--|--5---5--5--|--0---0--0--|

|--0---0--0--|--0---0--0--|------------|------------|------------|



| |) | | |) | | |) | | |) | | |) |

/. / o /. / o /. / o /. / o /. / o





(end R2) 

|------------------||-------------------||

|------------------||o-----------------o||

|--0---0--0---5h7--||o-----7------7-7--o||

|------------------||---0------0--------||

_ _

| |) | |-| | | |) | |

/. / /. / / / /. / / /







(w. chorus)

|---------------|---------------|----------|

|---------------|---------------|--repeat--|

|--5--5---5--5--|---------------|--last-2--|

|---------------|--0--0---0--0--|-measures-|



| | |) | | | |) |

/ /. / / / /. / /





(end chorus) (R3) (end R3)

|---------------|---------------|--------------||-------------------||

|---------------|---------------|--------------||o-----------------o||

|--5--5---5--5--|--0--0---0--0--|--3--3--5--5--||o-----7------7-7--o||

|---------------|---------------|--------------||---0------0--------||

_

| | |) | | | |) | | | | | | | |) | |

/ /. / / / /. / / / / / / / /. / / /







|---------|--------|-----------|---------||-----------------||

|-play-R2-|-chorus-|--play-R3--|-play-R2-||o---------------o|| 

|---2x----|--riff--|-w/-repeat-|---1x----||o-----7------0--o||

|---------|--------|-----------|---------||---0------0------||



| | |) |

/ /. / /





(w/ solo) 

|------|---------|--------|--------|-----------|repeat last measure of 

|-play-|---------|-chorus-|-chorus-|--play-R3--|the chorus w/ R3 till 

|--R2--|---------|---2x---|--riff--|-w/-repeat-|the end of the song.

|------|--0------|--------|--------|-----------|



o




_______________________________________________________
Contribuição: Renato Vieira Duval(renduval@kof.zzn.com)
Composição de Bob Seger
9.572 exibições

0 comentários

Ver todos os comentários
00:00 / 00:00
Outros vídeos desta música
Repetir Qualidade Automático
Outros vídeos desta música
00:00 / 00:00
Automático

Cifra Club Pro

Aproveite o Cifra Club com benefícios exclusivos e sem anúncios
Cifra Club Pro
Aproveite o Cifra Club com benefícios exclusivos e sem anúncios
OK