Cifra Club

Aprenda

Until It Sleeps

Metallica

Tab de baixo: Principal
Intro:
|----------------------------------|
|-----7--9/10-9----7--9/10---------|
|---7------------7---------8---7---|
|----------------------------------|


Slow part:
|----------------------|
|-----7--9/10-9----7---|
|---7------------7-----|
|----------------------|


Chorus (so tear me open...)
|-----------|------------------------------------------------------|
|-----------|------------------------------------------------------|
|-----------|------------------------------------------------------|
|---3--3--3/|--5--5--5--5--5--5---3/5--5--5--5---1--1--1-----------|


|-----------------------------------------------------------------|
|-----------------------------------------------------------------|
|-----------------------------------------------------------------|
|---3/5--5--5--5--5--5---3--3--3----------------------------------|


|-----------------------------------------------------------------|
|-----------------------------------------------------------------|
|-----------------------------------------------------------------|
|---3/5--5--3/5--5---3--3--3---1--1--1----------------------------|


|-----------------------------------------------------------------|
|-----------------------------------------------------------------|
|-----------------------------------------------------------------|
|---3/5--5--3/5--5---3--3--3-----------3/5------------------------|


Outro:
|----------------------------------|
|-----7--9/10-9----7---------------|
|---7------------7----9/10-8---7---|
|----------------------------------|

_______________________________________________________
Contribuição: wilimar junio ruas(juniorruas@ig.com.br)
Composição de James Hetfield / Lars Ulrich
9.370 exibições

0 comentários

Ver todos os comentários

Conseguiu tocar?

1 Tocaram 0 Ainda não

Grave um vídeo tocando Until It Sleeps e nos envie!

00:00 / 00:00
outros vídeos desta música
repetir qualidade Automático
Outros vídeos desta música
00:00 / 00:00
Automático

Cifra Club Pro

Aproveite o Cifra Club com benefícios exclusivos e sem anúncios
Cifra Club Pro
Aproveite o Cifra Club com benefícios exclusivos e sem anúncios
OK