Enviar cifraEntrar

Welcome Home (Sanitarium)

Metallica

Cifra: Principal
exibições 193.301
Tom: E
                        _3_

E|----------------3---353-2-------|----------------2---2-----3-----|
B|--------------------------------|--------------------0-----------|
G|--------------------------------|--------------------------------|
D|--------------------------------|--------------------------------|
A|--------------------------------|--------------------------------|
E|0-------------------------------|0-------------------------------|


E|0-------------------------------|--------------------------------|
B|--------------------------------|--------------------------------|
G|--------------------------------|--------------------------------|
D|--------------------------------|--------------------------------|
A|--------------------------------|--------------------------------|
E|0-------------------------------|0-------------------------------|


E|--------------------------------|--------------------------------|
B|--------------------------------|--------------------------------|
G|--------------------------------|--------------------------------|
D|--------------------------------|--------------------------------|
A|--------------------------------|--------------------------------|
E|0-------------------------------|0-------------------------------|


E|----------------|----------------|------------------|   
B|----------------|----------------|------------------|    
G|------0-------0-|------0---------|------------------|   
D|----4-------5---|----7---------0-|-------0-----0----|   
A|--2-------3-----|--5---------4---|-----2------------|   
E|0-------0-------|0-------3s5-----|-5s3-----3s5------|   

                                    

E|------------------------------|----------------15s17--17-----|----------------|
B|------------------------------|10-12s15-15s17----------------|----------------|
G|--------11--12--9---------12--|------------------------------|----------------|
D|----9-------------------------|------------------------------|----------------|
A|7-----------------------------|------------------------------|----------------|
E|------------------------------|------------------------------|----------------|


E|--15--15--12--12s14-----------|--------------------__3___----|----------------|
B|----------------------17^ r---|15-17--15--13--13---121312----|----------------|
G|------------------------------|--------------------------14--|12-s11----------|
D|------------------------------|------------------------------|--------12------|
A|------------------------------|------------------------------|------------14--|
E|------------------------------|------------------------------|----------------|


E|------------------------------|----19-----19-------------17--|171514----------|
B|------------------------------|--17---------17---------------|------171514----|
G|------------------------------|16-------------16-s14-14------|------------1614|
D|12s14-------------------------|------------------------------|----------------|
A|------------------------------|------------------------------|----------------|
E|------------------------------|------------------------------|----------------|

                               __3___

E|----------------------------12|101210----------------5-------|----3-----------|
B|--------------------------13--|------13--12------------------|----------------|
G|12^-----r---------------14----|------------------6-----------|4-----------6---|
D|----------------------14------|-------------/7----------/5---|-------/7-------|
A|------------------------------|------------------------------|----------------|
E|------------------------------|------------------------------|----------------|


Welcome to where time stands still, noone lives and noone will
Moon is full never seems to change, just labeled mentally deranged
Dream the sane thing every night, I see our freedom in my sight
No locked doors, no windows barred , no things to make my brain seem scared

Build my fear of what's out there, cannot breath the open air
Whisper things into my brain, assuring me that I'm insane
They think our heads are in their hands, but violent use brings violent plans
Keep him tied, it makes him well, he's getting better can't you tell?

Sleep my friend and you will see that dream is my reality
No more can they keep us in, listen damn it we will win


E|----------------|----------------|--------|
B|----------------|----------------|--------|
G|----------------|----------------|--------|
D|----------------|----------------|--------|
A|----2-2-----3-3-|----5-5---------|--------|
E|0-0-----0-0-----|0-0-----5-5-5-3-|3-3-5-3-|


Keep me locked up in this cage, can't they see it's why my brain says rage?
They see it right, they see it well, but they think this saves from our hell


E|----------------|----------------|--------|
B|----------------|----------------|--------|
G|----------------|----------------|--------|
D|----------------|----------------|--------|
A|----2-2-----3-3-|----5-5---------|--------|
E|0-0-----0-0-----|0-0-----5-5-5-3-|3-3-5-3-|


[Chorus]
                                                 

E|--------------------------------|--------------------------------|
B|--------------------------------|--------------------------------|
G|--------------------5s4-----5s4-|----------------_3_-------------|
D|------------5s4-----5s4-----5s4-|----------------020-------------|
A|------------5s4-----3s2-----3s2-|--------------------3-2---------|
E|0-------x-x-3s2-x-x-----x-x-----|------------------------5-3-2-3-|


E|--------------------------------|--------------------------------|
B|--------------------------------|--------------------------------|
G|--------------------5s4-----5s4-|--------------------------------|
D|------------5s4-----5s4-----5s4-|--------------------------------|
A|------------5s4-----3s2-----3s2-|----2-2-2-2-2-2-3-2-------x-3---|
E|0-------x-x-3s2-x-x-----x-x-----|--------------------3-----x-1---|


E|--------------------------------|--------------------------------|
B|--------------------------------|--------------------------------|
G|--------------------5s4-----5s4-|----------------_3_-------------|
D|------------5s4-----5s4-----5s4-|----------------020-------------|
A|------------5s4-----3s2-----3s2-|--------------------3-2---------|
E|0-------x-x-3s2-x-x-----x-x-----|------------------------5-3-2-3-|


E|--------------------------------|--------------------------------| 
B|--------------------------------|--------------------------------| 
G|--------------------5s4-----5---|4-------------------------------| 
D|------------5s4-----5s4-----5---|4-------------------------------| 
A|------------5s4-----3s2-----3---|2-------------------------------| 
E|0-------x-x-3s2-x-x-----x-x-----|--------------------------------| 


E|----------------------------------------------------------------|
B|--------------------------------------------------------10------|
G|----------------------------------------7---7---9--s11----------|
D|------------------------7---7--s9-------------------------------|
A|--------5---5---7--s9-------------------------------------------|
E|-/7-------------------------------------------------------------|

           

E|--------15--17--19------19------19------------------------------|
B|17--19--------------------------17------------------------------|
G|----------------------------------------------------------------|
D|----------------------------------------------------------------|
A|----------------------------------------------------------------|
E|----------------------------------------------------------------|

                   

E|17-h19-p17------15------17-h19--17--------------17--19p17 17------|
B|19-h20-p19------17------19-h20--19------19------19--20p19 17------|
G|----------------------------------------19------------ -- --------|
D|------------------------------------------------------ -- --------|
A|------------------------------------------------------ -- --------|
E|------------------------------------------------------ -- --------|


E|15------------------------------|
B|--------------------------------|
G|16------------------------------|
D|--------------------------------|
A|--------------------------------|
E|--------------------------------|


E|14^---------------------r-------------------------------14--15--|
B|15^---------------------r-------15------------------------------|
G|----------------------------------------------------------------|
D|----------------------------------------------------------------|
A|----------------------------------------------------------------|
E|----------------------------------------------------------------|

                

E|17--15--14--15--14h15p14------14---------------- -- --------------------|
B|-------------------------17-------17--17--14--15p14 16--14--------------|
G|------------------------------------------------ -- --------16--14-s12--|
D|------------------------------------------------ -- --------------------|
A|------------------------------------------------ -- --------------------|
E|------------------------------------------------ -- --------------------|


E|--------------------------------|
B|--------------------------------|
G|14-p12------12------------------|
D|--------16------16--14--12------|
A|----------------------------16--|
E|--------------------------------|


E|--------------------------------------------------------17------|
B|------------------------------------------------17-s15------15-s|
G|----------------------------------------------------------------|
D|12-h14----------------------------------------------------------|
A|----------------------------------------------------------------|
E|----------------------------------------------------------------|


E|----15----------14----------12----------10----------7-----------|
B|14------14-s12------12-s10------10-s8-------8-s-7-------7-------|
G|------------------------------------------------------------7---|
D|----------------------------------------------------------------|
A|----------------------------------------------------------------|
E|----------------------------------------------------------------|


E|--------------------------------|
B|--------------------------------|
G|----7---9-----9s11------9-------|
D|9-------------~-----------------|
A|--------------------------------|
E|--------------------------------|


E|----------------------------------------------------------------|
B|----------------------------------------------------------------|
G|9---------------------------------------9---9---9-------9-------|
D|----------------------------------------------------------------|
A|----------------------------------------------------------------|
E|----------------------------------------------------------------|


E|------------------------------------------------5---------------|
B|----------------------------------------------------------------|
G|9-------7-------------------------------6-----------------------|
D|----------------5--------------/7----------------------/5-------|
A|----------------------------------------------------------------|
E|----------------------------------------------------------------|


E|--------3-----------------------|
B|--------------------------------|
G|4-----------------------6-------| 
D|---------------/7---------------|
A|--------------------------------|
E|--------------------------------|


E|----------------|--------------------------------|
B|----------------|--------------------------------|
G|-3--------------|--------------------5s4-----5---|
D|020-------------|------------5s4-----5s4-----5---|
A|----3-2---------|------------5s4-----3s2-----3---|
E|--------5-3-2-3-|0-------x-x-3s2-x-x-----x-x-----|


E|--------------------------------|----------------|----------|
B|--------------------------------|----------------|----------|
G|4-------------------------------|_3_-------------|----------|
D|4-------------------------------|020-------------|2---------|
A|2-------------------------------|----3-2---------|2---------|
E|--------------------------------|--------5-3-2-3-|0---------|


E|----------------|----------------|----------------|----------------|
B|----------------|----------------|----------------|----------------|
G|----------------|----------------|----------------|----------------|
D|----------------|----------------|----------------|----------------|
A|----------------|----------------|----------------|----------------|
E|0-0-0-0-0-0-0-0-|0-0-0-0-0-0-0-0-|0-0-0-0-0-0-0-0-|0-0-0-0-0-0-0-0-|


E|----------------|----------------|----------------|----------------|
B|----------------|----------------|----------------|----------------|
G|----------------|----------------|----------------|----------------|
D|0h2---0h2-------|----------------|0h1---0h1---0h1-|--0h2-----------|
A|0h2---0h2-------|----------------|0h1---0h1---0h1-|--0h2-----------|
E|----------0-0-0-|0-0-0-0-0-0-0-0-|----------------|------0-0-0-0-0-|

                                       

E|----------------|----------------|----------------|----------------| 
B|----------------|----------------|----------------|----------------| 
G|----------------|----------------|----------------|----------------| 
D|0h1---0h1-------|----------------|0h1---0h1---0h1-|--0h2-----------| 
A|0h1---0h1-------|----------------|0h1---0h1---0h1-|--0h2-----------| 
E|----------0-0-0-|0-0-0-0-0-0-0-0-|----------------|------0-0-0-0-0-|


E|--------------------------------|--------------------------------|
B|--------------------------------|--------------------------------|
G|--------------------------------|------7-7-----------------------|
D|0-2---2-2-----------------------|0-2---7-7-----------------------|
A|0-2---2-2-----------------------|0-2---5-5-----------------------|
E|------0-0-----------------------|--------------------------------|


E|--------------------------------|--------------------------------|
B|--------------------------------|--------------------------------|
G|--------------------------------|------5-5-------------4-4-------|
D|0-2---3-3-----------------------|0-2---5-5-------5-4---4-4-------|
A|0-2---3-3-----------------------|0-2---3-3-------3-2---2-2-------|
E|------1-1-----------------------|--------------------------------|


         Mirror stares back hard        "Kill" it's such a friend-

E|--------------------------------|--------------------------------|
B|--------------------------------|--------------------------------|
G|--------------------------------|------7-7-----------------------|
D|0-2---2-2-----------------------|0-2---7-7-----------------------|
A|0-2---2-2-----------------------|0-2---5-5-----------------------|
E|------0-0-----------------------|--------------------------------|


ly word       Seems the only way            for reaching out again

E|--------------------------------|--------------------------------|
B|--------------------------------|--------------------------------|
G|--------------------------------|------5-5-------------4-4-------|
D|0-2---3-3-----------------------|0-2---5-5-------5-4---4-4-------|
A|0-2---3-3-----------------------|0-2---3-3-------3-2---2-2-------|
E|------1-1-----------------------|--------------------------------|


E|--------------------------------|
B|--------------------------------|
G|--------------------------------|
D|--------------------------------|
A|--------------------------------|
E|0-0-0-0-0-0-0-0-0-0-0-0-12\-----|


E|----------------------------------------------------------------|
B|----------------------------------------------------------------|
G|12--12--12--12--12--12--12--12--12--12--12--12--12--12--12--12--|
D|----------------------------------------------------------------|
A|----------------------------------------------------------------|
E|----------------------------------------------------------------|


E|----------------------------------------------------------------|
B|----------------------------------------------------------------|
G|16--12--12--12--12--12--12--12--12--12--12--12--12--12--12--12--|
D|----------------------------------------------------------------|
A|----------------------------------------------------------------|
E|----------------------------------------------------------------|


E|------------------------------------------------------------12--|
B|--------------------------------13--12--12--12--15--12--12------|
G|14--12--12--12--16--12--12--12----------------------------------|
D|----------------------------------------------------------------|
A|----------------------------------------------------------------|
E|----------------------------------------------------------------|

             

E|13--12--12--12--15----12----12--17\---------------------12------|
B|-----------------------------------------------/12--------------|
G|----------------------------------------------------------------|
D|----------------------------------------------------------------|
A|----------------------------------------------------------------|
E|----------------------------------------------------------------|


E|17-p15-p12--------------12------17-p15-p12----------------------|
B|----------------17-p15--------------------------17-p15-p12------|
G|----------------------------------------------------------------|
D|----------------------------------------------------------------|
A|----------------------------------------------------------------|
E|----------------------------------------------------------------|


E|17-p15-p12--------------12------17-p15-p12--------------12------|
B|----------------17-p15--------------------------15-p12----------|
G|----------------------------------------------------------------|
D|----------------------------------------------------------------|
A|----------------------------------------------------------------|
E|----------------------------------------------------------------|


E|17^---------------------r-------^---------------------17----15--|
B|------------------------------------------------17--------------|
G|----------------------------------------------------------------|
D|----------------------------------------------------------------|
A|----------------------------------------------------------------|
E|----------------------------------------------------------------|


E|14--------------14----------------------------------------------|
B|--------15--------------15--------------------------------------|
G|------------------------------------------------2---------------|
D|--------------------------------------------------------4-------|
A|----------------------------------------------------------------|
E|----------------------------------------------------------------|


E|----------------------------------------------------------------|
B|----------------------------------------------------------------|
G|----------------4-------2---------------2-------4---2-----------|
D|4^------------------------------4-----------------------4-------|
A|----------------------------------------------------------------|
E|----------------------------------------------------------------|


E|----------------------------------------------------------------|
B|----------------------------------------------------------------|
G|--------------------------------------------------------4-------|
D|3-------2---------------2^--------------------------------------|
A|----------------5-----------------------------------------------|
E|----------------------------------------------------------------|


E|----------------------------------------------------------------|
B|----------------5-----------------------5---------------5-------|
G|7^----------------------7^----------------------7^--------------|
D|----------------------------------------------------------------|
A|----------------------------------------------------------------|
E|----------------------------------------------------------------|


E|----------------------------------------------------------------|
B|--------5---------------5-------------------------------12------|
G|7^--------------7^--------------7\--------------14--------------|
D|----------------------------------------------------------------|
A|----------------------------------------------------------------|
E|----------------------------------------------------------------|


E|--------------------------------15^--------15--------14---------|
B|15^--------15--------12-----------------------------------------|
G|----------------------------------------------------------------|
D|----------------------------------------------------------------|
A|----------------------------------------------------------------|
E|----------------------------------------------------------------|


E|12-------------------12-----------------------------------------|
B|-----------15-------------------15^---------------------17--17--|
G|----------------------------------------------------------------|
D|----------------------------------------------------------------|
A|----------------------------------------------------------------|
E|----------------------------------------------------------------|


E|15----------15--17--15------15--19--17-(15)--s--21------19--22--|
B|----17--18--------------19--------------------------------------|
G|----------------------------------------------------------------|
D|----------------------------------------------------------------|
A|----------------------------------------------------------------|
E|----------------------------------------------------------------|


E|22--19------22--22^-------------22^-----------------------------|
B|--------x-------------------------------------------------------|
G|-------------------------------------------End of solo 3--------|
D|----------------------------------------------------------------|
A|----------------------------------------------------------------|
E|----------------------------------------------------------------|


E|--------------------------------|--------------------------------|
B|--------------------------------|--------------------------------|
G|--------------------R-----------|------7-7-------7---------------|
D|0-2---2-2-------2---E|-----------|0-2---7-7-------7--------------|
A|0-2---2-2-------2---S-----------|0-2---5-5-------5---------------|
E|------0-0-------0---T-----------|--------------------------------|


E|--------------------------------|--------------------------------|
B|--------------------------------|--------------------------------|
G|--------------------------------|------7-7-----------------------|
D|0-2---2-2-----------------------|0-2---7-7-----------------------|
A|0-2---2-2-----------------------|0-2---5-5-----------------------|
E|------0-0-----------------------|--------------------------------|

 

E|--------------------------------|--------------------------------|
B|--------------------------------|--------------------------------|
G|--------------------------------|------5-5-------------4-4-------|
D|0-2---3-3-----------------------|0-2---5-5-------5-4---4-4-------|
A|0-2---3-3-----------------------|0-2---3-3-------3-2---2-2-------|
E|------1-1-----------------------|--------------------------------|


E|--------------------------------|--------------------------------|
B|--------------------------------|--------------------------------|
G|--------------------------------|2---------------2-2-2-----2-----|
D|(5)-------------5-5-5-4---5-----|----------------------5---------|
A|(7)-------------7-7-7-6---7-----|9---------------9-9-9-7---9-----|
E|--------------------------------|--------------------------------|


E|--------------------------------|--------------------------------|
B|--------------------------------|--------------------------------|
G|----4-5---------5-5-5-7---5-----|--------------------------4-----|
D|5-----------------------------5-|----------------4-4-4-5-------5-|
A|-10--9-8---------8-8-8-10--8---7-|----------------6-6-6-7---9---7|
E|--------------------------------|--------------------------------|


E|--------------------------------|--------------------------------|
B|--------------------------------|--------------------------------|
G|--------------------------------|--------------------------------|
D|--------------------------------|--------------------------------|
A|------------5-s-7-7-7-5---7-----|9---------------9-9-9-7---9-----|
E|--------------------------------|--------------------------------|


E|--------------------------------|--------------------------------|
B|--------------------------------|--------------------------------|
G|--------------------------------|--------------------------------|
D|--------------------------------|--------------------------------|
A|10--9-8---------8-8-8-10--8---7-|----------------6-6-6-7---9-----|
E|--------------------------+-----|--------------------------------|


E|--------------------------------|--------------------------------|
B|--------------------------------|--------------------------------|
G|--------------------------------|--------------------------------|
D|--------------------------------|--------------------------------|
A|7---------------7-7-7-5---7-----|9---------------9-9-9-7---9---9-|
E|--------------------------------|--------------------------------|


E|--------------------------------|--------------------------------|
B|--------------------------------|--------------------------------|
G|--------------------------------|--------------------------------|
D|--------------------------------|------------------------------5-|
A|10--9-8---------8-8-8-10--8---7-|----------------6-6-6-7---9---7-|
E|--------------------------+-----|--------------------------------|


E|----------------------------------------------------------------|
B|----------------------------------------------------------------|
G|----------------------------------------------------------------|
D|----------------------------------------------------------------|
A|-------------------------------7---7---7---6-------7------------|
E|-/7-------------------------------------------------------------|


E|----------------------------------------------------------------|
B|----------------------------------------------------------------|
G|----------------------------------------------------------------|
D|----------------------------------------------------------------|
A|9-------10--12------------------12--12--12--10------12----------|
E|----------------------------------------------------------------|


E|----------------------------------------------------------------|
B|----------------------------------------------------------------|
G|--------12--------------12------14^---------14^---------14^-----|
D|------------14------14------------------------------------------|
A|12-s14----------------------------------------------------------|
E|----------------------------------------------------------------|


E|----------------------------------------------------------------|
B|--------------------------------12----------12------------------|
G|12------------------------------12----------12------------------|
D|----14------------------14--14------14--14--------------14--14--|
A|----------------------------------------------------------------|
E|----------------------------------------------------------------|


E|----------------------------------------------------------------|
B|12----------12------------------__3___------------------12------|
G|12----------12----------12--14--14^r12--14--14------14----------|
D|----14--14----------14------------------------------------------|
A|----------------------------------------------------------------|
E|----------------------------------------------------------------|

                                                        ___3____

E|----12----------------------12--15^---------r-----------12h15p12|
B|--------12--15^---------15--------------------------------------|
G|14^-------------------------------------------------------------|
D|----------------------------------------------------------------|
A|----------------------------------------------------------------|
E|----------------------------------------------------------------|


E|-15p12h15-------------------------------- ------------ ------------|
B|---------12------------------------------ ------------ ------------|
G|------------14--12------12--14^-r----p12 14--14^-rp12 14--14^-rp12-|
D|--------------------14------------------ ------------ -------------|
A|---------------------------------------- ------------ -------------|
E|---------------------------------------- ------------ -------------|


E|----------------------------------------------------------------|
B|----------------------------------------------------------------|
G|14--14^-rp1214--14^-------------11--11--11--12------14---s--16--|
D|----------------------------------------------------------------|
A|----------------------------------------------------------------|
E|----------------------------------------------------------------|


E|----------------------------------------------------------------|
B|12-----s----17--17----------------------------------------------|
G|----------------------------------------------------------------|
D|------------------------------------End of solo 4---------------|
A|----------------------------------------------------------------|
E|----------------------------------------------------------------|


E|--------------------------------|--------------------------------|
B|--------------------------------|--------------------------------|
G|--------------------------------|------7-7-----------------------|
D|0-2---2-2-----------------------|0-2---7-7-----------------------|
A|0-2---2-2--------------(8)\-----|0-2---5-5--------------(8)\-----|
E|------0-0--------------(6)\-----|-----------------------(6)\-----|


E|--------------------------------|--------------------------------|
B|--------------------------------|--------------------------------|
G|--------------------------------|------5-5-------------4-4-------|
D|0-2---3-3-----------------------|0-2---5-5-------5-4---4-4-------|
A|0-2---3-3--------------(8)\-----|0-2---3-3-------3-2---2-2-------|
E|------1-1--------------(6)\-----|--------------------------------|


E|--------------------------------|--------------------------------|
B|--------------------------------|----------------___3___---------|
G|----------------___3___---------|------7-7-------7--7--7-7-------|
D|0-2---2-2-------2--2--2-2-------|0-2---7-7-------7--7--7-7-------|
A|0-2---2-2-------2--2--2-2-------|0-2---5-5-------5--5--5-5-------|
E|------0-0-------0--0--0-0-------|--------------------------------|


E|--------------------------------|--------------------------------|
B|--------------------------------|----------------___3___---------|
G|----------------___3___---------|------5-5-------4--4--4-4-------|
D|0-2---3-3-------3--3--3-3-------|0-2---5-5-------4--4--4-4-------|
A|0-2---3-3-------3--3--3-3-------|0-2---3-3-------2--2--2-2-------|
E|------1-1-------1--1--1-1-------|--------------------------------|


E|--------------------------------|--------------------------------|
B|---3---------------3------------|--------------------------------|
G|4--4--4-4-------4--4--4-4-------|4-------2-----------------------|
D|4--4--4-4-------4--4--4-4-------|4-------2-------5-------4-------|
A|2--2--2-2-------2--2--2-2-------|2-------0-------5-------4-------|
E|--------------------------------|----------------3-------2-------|


E|--------------------------------|--------------------------------|
B|--------------------------------|--------------------------------|
G|--------------------------------|--------------------------------|
D|2-------------------------------|--------------------------------|
A|2-------------------------------|--------------------------------|
E|0-------------------------------|--------------------------------|
  • 1
  • 2
  • 3
  • 4
  • 5
  • 6
  • 7
  • 8
  • 9
  • 10
  • 11
  • 12
    Acordes para:
      Composição: James Hetfield / Kirk Hammett / Lars UlrichColaboração e revisão:
      • Marcos Paulo
      • Ricardo Crivelli
      • José Oliveira

      0 comentários

        mostrar mais comentários

        Conseguiu tocar?

        18tocaram3ainda não

        Grave um vídeo tocando Welcome Home (Sanitarium) e mande pra gente!

        00:00 / 00:00
        outros vídeos desta música
        repetirqualidadeautomática
        • automática
        Outro vídeos desta música
          00:00 / 00:00
          automática
          • automática
          Acordes para:violão e guitarra
          dificuldadeexibiçõescontribuições
          1 versão de Tab de baixoexibiçõescontribuições
          1 versão de Tab de bateriaexibiçõescontribuições
          1 versão de Guitar Proformatodownloadscontribuição
          fecharplay/pause subir/descer velocidade
            Acordes para:violão e guitarra
            acordes
            fechar
            OK