Cifra Club

Aprenda

Welcome Home (Sanitarium)

Metallica

Tab de baixo: Principal
INTRO 
|--------------------|-------------------------------| 
|--==guitar intro==--|-------7----7/5----5h7---------| 
|--------------------|---------------------------7---| 
|--------------------|-------------------------------| 
 
|------------------------| 
|--7----7/9---------5h7--| 
|--------------7---------| 
|------------------------| 
 
 
these verse riffs kinda go along with the bass drums or something... 
listen carefully. 
 
VERSE RIFF 1 
|-------------------------------------------| 
|-------------------------------------------| 
|---------3-----3-5----5--------------------| 
|-0-----0----------------5----3----3---5/3--| 
 
VERSE RIFF 2 
|------------------------------------------------------| 
|------------------------------------------------------| 
|---------3-----2--3--5--3--2--------------------------| 
|-0-----0----------------------3--5-----3-----3---2--2-| 
 
VERSE RIFF 3 
|-----------------------------------------------| 
|-----------------------------------------------| 
|---------3-----3-5------5----------------------| 
|-0-----0------------------5-----5--3-----3---5-| 
 
VERSE RIFF 4 
|-------------------------------------------------| 
|-------------------------------------------------| 
|---------3------3-5-----5------------------------| 
|-0-----0------------------5----5---3----3--2---2-| 
 
VERSE RIFF 5 
|-------------------------------------------------------| 
|-------------------------------------------------------| 
|---------3-------2--3--5--3--2-------------------------| 
|-0-----0------------------------3--5--5--5-5-3--3-2--2-| 
 
PREChorus 
|--------------------------------------------------------------| 
|--------------------------------------------------------------| 
|-------2--2--------3--3-----------5--5------------------------| 
|-0--0--------0--0---------0---0---------5--5--5-3--3--3--5--2-| 
 
Chorus 
|--------------------------------------------------------| 
|-----------------------------------0h2p0----------------| 
|-----------------3/2-----3/2-------------3-2-0----------| 
|--0--x-x-3/2-x-x-----x-x-----------------------3-2-3-0--| 
 
|-------------------------------------------------------| 
|-------------------------------------------------------| 
|-------------x-x-3/2-x-x-3/2---2-2-2-2-2-2-3-2---------| 
|--0--x-x-3/2-----------------------------------3-x-1-0-| 
 
|--------------------------------------------------------| 
|-----------------------------------0h2p0----------------| 
|-----------------3/2-----3/2-------------3-2-0----------| 
|--0--x-x-3/2-x-x-----x-x-----------------------3-2-3-0--| 
 
|-----------------------------------------------| 
|-----------------------------------------------| 
|-----------------3/2-----3/2--3----2-------2---| 
|--0--x-x-3/2-x-x-----x-x-----------------------| 
 
Chorus B 
|---------------------------------------------------------------------------| 
|-0h2p0------------------------------------------0h2p0----------------------| 
|-------3-2-0-----------------------3/2-----3/2--------3-2-0----------------| 
|-------------3-2-3-0---x-x-3/2-x-x-----x-x------------------3-2-3-0----(0)-| 
 
RIFF 3 
|-------------------------------------| 
|----------------------------------x2-| 
|-------------------------------------| 
|-0-0-0-0-0-0-0-0-0-0-0-0-0-0-0-0-----| 
 
RIFF 4 
|---------------------------------------------------------------| 
|---------------------------------------------------------------| 
|---------------------------------------------------------------| 
|-5h7--5h7-0-0-0-0-0-0-0-0-0-0-0--5h6--5h6--5h6--5h7--0-0-0-0-0-| 
 
RIFF 5 
|---------------------------------------------------------------| 
|---------------------------------------------------------------| 
|---------------------------------------------------------------| 
|-5h6--5h6-0-0-0-0-0-0-0-0-0-0-0--5h6--5h6--5h6--5h7--0-0-0-0-0-| 
 
RIFF 6 
|-----------------------------------------------------------------------| 
|-----------------------------------------------------------------------| 
|-0--2------------0-2--5--5-------0-2------------0--2--3--3--3--2--2--2-| 
|-------0--0---------------------------1--1-----------------------------| 
 
RIFF 6B 
|------------------------------------| 
|------------------------------------| 
|-0--2---------------0-2--5--5-----5-| 
|-------0--0-----0-------------------| 
 
RIFF 7 
|-------------------------------| 
|-------------------------------| 
|-------------------------------| 
|--0-0-0-0-0-0-0-0-0-0-0-0-/12--| 
 
RIFF 8 
|--------------------------------------------------------------------| 
|--------------------------------------------------------------------| 
|-0--2--------------------0--2--5--5---5-5-5-5---0--2----------------| 
|-------0--0----0-0-0-0--------------------------------1--1--1-1-1-1-| 
 
|-------------------------------------------------------------------------| 
|-------------------------------------------------------------------------| 
|-0--2--3--3---2--2-2-2--2-2-2-2-2-2-2-2---2---0--------------------------| 
|--------------------------------------------------3---2---0----------/7--|






INTRO X 1
VERSE RIFF 1 X 5
VERSE RIFF 2 X 1
VERSE RIFF 3 X 1
VERSE RIFF 4 X 1
VERSE RIFF 2 X 1
VERSE RIFF 5 X 1
PRECHORUS X 2
CHORUS X 1
VERSE RIFF 1 X 3
VERSE RIFF 4 X 1
VERSE RIFF 1 X 5
VERSE RIFF 2 X 1
VERSE RIFF 3 X 1
VERSE RIFF 4 X 1
VERSE RIFF 2 X 1
VERSE RIFF 5 X 1
PRECHORUS X 2
CHORUS X 1
CHORUS B X 1
RIFF 3 X 1
RIFF 4 X 1
RIFF 5 X 3
RIFF 6 X 2
RIFF 7 X 1
RIFF 5 X 4
RIFF 6B X 1
RIFF 5 X 4
RIFF 6 X 7
RIFF 8 X 1
Composição de James Hetfield / Kirk Hammett / Lars Ulrich
Colaboração e revisão:
  • Giuseppe Cortizo
  • Giovani Bortolini
  • Hellektra
14.678 exibições

0 comentários

Ver todos os comentários

Conseguiu tocar?

1 Tocaram 0 Ainda não

Grave um vídeo tocando Welcome Home (Sanitarium) e nos envie!

00:00 / 00:00
outros vídeos desta música
repetir qualidade Automático
Outros vídeos desta música
00:00 / 00:00
Automático

Cifra Club Pro

Aproveite o Cifra Club com benefícios exclusivos e sem anúncios
Cifra Club Pro
Aproveite o Cifra Club com benefícios exclusivos e sem anúncios
OK