We're a Happy Family

Metallica

Composição de: Ramones
tom: G

E|-------------------------------------------------------------------------------|
B|-------------------------------------------------------------------------------|
G|-------------------------------------------------------------------------------|
D|-----9-------------------9------------------9-------------------9--------------|
A|--7--7--9-9-9-9-9-9---7--7--9-9-9-9-9-9--7--7--9-9-9-9-9-9---7--7--9-9-9-9-9-9-|
E|--5-----7-7-7-7-7-7---5-----7-7-7-7-7-7--5-----7-7-7-7-7-7---5-----7-7-7-7-7-7-|

E|--------------------------------------------|
B|--------------------------------------------|
G|--------------------9-11---------------7-9--|
D|-11-11-11-11-11-11--7-9---9-9-9-9-9-9--5-7--|
A|-9--9--9--9--9--9---------7-7-7-7-7-7-------|
E|--------------------------------------------|

E|--------------------------------------------|
B|--------------------------------------------|
G|--------------------9-11---------------7-9--|
D|-11-11-11-11-11-11--7-9---9-9-9-9-9-9--5-7--|
A|-9--9--9--9--9--9---------7-7-7-7-7-7-------|
E|--------------------------------------------|

We're a Happy Family....           Me, Mom and Dad
E|---------------------------------------------------|
B|---------------------------------------------------|
G|---------------------------------------------------|
D|------------------------------------------7-7-7-7--|
A|-2--2-2--5--5--2--2-2--7-7--2--2-2--5--5--5-5-5-5--|
E|-0--0-0--3--3--0--0-0--5-5--0--0-0--3--3-----------|

Sitting here in Queens...        gulping down Thorazines
E|---------------------------------------------------|
B|---------------------------------------------------|
G|---------------------------------------------------|
D|------------------------------------------7-7-7-7--|
A|-2--2-2--5--5--2--2-2--7-7--2--2-2--5--5--5-5-5-5--|
E|-0--0-0--3--3--0--0-0--5-5--0--0-0--3--3-----------|

E|-------------------------------------------------------------------------------|
B|-------------------------------------------------------------------------------|
G|-------------------------------------------------------------------------------|
D|-----9-------------------9------------------9-------------------9--------------|
A|--7--7--9-9-9-9-9-9---7--7--9-9-9-9-9-9--7--7--9-9-9-9-9-9---7--7--9-9-9-9-9-9-|
E|--5-----7-7-7-7-7-7---5-----7-7-7-7-7-7--5-----7-7-7-7-7-7---5-----7-7-7-7-7-7-|

E|--------------------------------------------|
B|--------------------------------------------|
G|--------------------9-11---------------7-9--|
D|-11-11-11-11-11-11--7-9---9-9-9-9-9-9--5-7--|
A|-9--9--9--9--9--9---------7-7-7-7-7-7-------|
E|--------------------------------------------|

E|--------------------------------------------|
B|--------------------------------------------|
G|--------------------9-11---------------7-9--|
D|-11-11-11-11-11-11--7-9---9-9-9-9-9-9--5-7--|
A|-9--9--9--9--9--9---------7-7-7-7-7-7-------|
E|--------------------------------------------|

verse
E|---------------------------------------------------|
B|---------------------------------------------------|
G|---------------------------------------------------|
D|------------------------------------------7-7-7-7--|
A|-2--2-2--5--5--2--2-2--7-7--2--2-2--5--5--5-5-5-5--|
E|-0--0-0--3--3--0--0-0--5-5--0--0-0--3--3-----------|

E|---------------------------------------------------|
B|---------------------------------------------------|
G|---------------------------------------------------|
D|------------------------------------------7-7-7-7--|
A|-2--2-2--5--5--2--2-2--7-7--2--2-2--5--5--5-5-5-5--|
E|-0--0-0--3--3--0--0-0--5-5--0--0-0--3--3-----------|

E|-------------------------------------------------------------------------------|
B|-------------------------------------------------------------------------------|
G|-------------------------------------------------------------------------------|
D|-----9-------------------9------------------9-------------------9--------------|
A|--7--7--9-9-9-9-9-9---7--7--9-9-9-9-9-9--7--7--9-9-9-9-9-9---7--7--9-9-9-9-9-9-|
E|--5-----7-7-7-7-7-7---5-----7-7-7-7-7-7--5-----7-7-7-7-7-7---5-----7-7-7-7-7-7-|

E|--------------------------------------------|
B|--------------------------------------------|
G|--------------------9-11---------------7-9--|
D|-11-11-11-11-11-11--7-9---9-9-9-9-9-9--5-7--|
A|-9--9--9--9--9--9---------7-7-7-7-7-7-------|
E|--------------------------------------------|

E|--------------------------------------------|
B|--------------------------------------------|
G|--------------------9-11---------------7-9--|
D|-11-11-11-11-11-11--7-9---9-9-9-9-9-9--5-7--|
A|-9--9--9--9--9--9---------7-7-7-7-7-7-------|
E|--------------------------------------------|

We're a Happy Family....           Me, Mom and Dad
E|---------------------------------------------------|
B|---------------------------------------------------|
G|---------------------------------------------------|
D|------------------------------------------7-7-7-7--|
A|-2--2-2--5--5--2--2-2--7-7--2--2-2--5--5--5-5-5-5--|
E|-0--0-0--3--3--0--0-0--5-5--0--0-0--3--3-----------|

repeat
We're a Happy Family....           Me, Mom and Dad...
E|---------------------------------------------------|
B|---------------------------------------------------|
G|---------------------------------------------------|
D|------------------------------------------7-7-7-7--|
A|-2--2-2--5--5--2--2-2--7-7--2--2-2--5--5--5-5-5-5--|
E|-0--0-0--3--3--0--0-0--5-5--0--0-0--3--3-----------|

E|-------------------------|
B|-15b-15b-15b-15b-15b-----|
G|-18b-18b-18b-18b-18b-----|
D|-------------------------|
A|-------------------------|
E|-------------------------|
Página 1 / 1

Letras e título
Acordes e artista

resetar configurações
OK