Notificações Amigos pendentes

      Michael Jackson

      Beat It Solo

      133.253 exibições
      Tom: E
      Standard Tuning
      
      
      |----------------------------|----------------------------|
      |----------------------------|----------------------------|
      |-(1)b3==(1)-----(1)r(1)s6---|-(6)-6(13)-----(6)s8-8(13)--|
      |----------------------------|----------------------------|
      |----------------------------|----------------------------|
      |----------------------------|----------------------------|
      
      
      
                    T        T                T              T
      
                             |------5------|  |------6-------|
      
        
      
      |------(23)--14p9h13-14p13p11p==9h13-14p13p11p9h13-14p|
      |--------------------------------------------------------|
      |-(8)----------------------------------------------------|
      |--------------------------------------------------------|
      |--------------------------------------------------------|
      |--------------------------------------------------------|
      
      
      
                        T              T                        ~~~
      
         |---------7----------|  |---------7----------|
      
         
      
      |-14p121p9-----------------------------------------------------------|
      |----------h13---15p13p11p9h14-14p13p==11p9-(9)h11h12p11-------(11)s=|
      |--------------------------------------------------------------------|
      |--------------------------------------------------------------------|
      |--------------------------------------------------------------------|
      |--------------------------------------------------------------------|
      
      
                             |-----5-----|  |------6-------|
      
         
      
      |------------------11h18p14p11----11-------------11----|
      |-18------11-14h18-------------18-11-18p14p11h14----18p|
      |------------------------------------------------------|
      |------------------------------------------------------|
      |------------------------------------------------------|
      |------------------------------------------------------|
      
      
         |---------7---------|
      
         
      
      |----------11------------11-----------------------------------------------|
      |-14p11h14------18p14p11----11---------------------14b16==(14)r(14)p11h===|
      |------------------------------13b14==(13)r(13)p11------------------------|
      |-------------------------------------------------------------------------|
      |-------------------------------------------------------------------------|
      |-------------------------------------------------------------------------|
      
      
      
      
                                                                    \*
            T           T
        
      
      |----------------18s21--------------------------------------------------|
      |-14-18s21p14p11-------14p11--------------------------------------------|
      |-----------------------------13b14==(13)-(13)r(13)p11------------------|
      |------------------------------------------------------4-(4)-(4)----(4)-|
      |-----------------------------------------------------------------------|
      |-----------------------------------------------------------------------|
      
      
      
         /                             \1/
        
      
      |------------------------------------------|
      |------------------------------------------|
      |------------[8]b10==(8)r(8)p6h8-(8)p6-(6)-|
      |--(4)-------------------------------------|
      |------------------------------------------|
      |------------------------------------------|
      
      
      
        
      
      |-----------------------------------------------|
      |------2b4==(2)-(2)r(2)--h2b4==(2)r(2)--2b4=====|
      |-(6)\-----------------p4-------------p4--------|
      |-----------------------------------------------|
      |-----------------------------------------------|
      |-----------------------------------------------|
      
      
       
      
      |------------------------------------------------|
      |=(2)rp0-2b4==(2)r(2)p0--------------------------|
      |-----------------------[1]b4==([1])--([1])r-(1)s|
      |------------------------------------------------|
      |------------------------------------------------|
      |------------------------------------------------|
      
      
                                                ~~~~~
         
      
      |-------------11--------------11-14b16==(14)r---11----|
      |----------------14b16==(14)r-11-------------------11-|
      |-15-----6s12-----------------------------------------|
      |-----------------------------------------------------|
      |-----------------------------------------------------|
      |-----------------------------------------------------|
      
      
                             ~~~~~~~~~         T
         
      
      |------------------------------------------------|
      |---------------------------------------14h17p12-|
      |-13b15==(13)r(13)p11-13---(13)-(13)\------------|
      |------------------------------------------------|
      |------------------------------------------------|
      |------------------------------------------------|
      
      
      
      
         T          T        T        T         T        T        T        T           
         
         
      
      |-14h17p11--------14h17p11--------14h17p11--------14h17p11------ h12-16p==|
      |---------14h17p11--------14h17p11--------14h17p11--------14p==11---------|
      |-------------------------------------------------------------------------|
      |-------------------------------------------------------------------------|
      |-------------------------------------------------------------------------|
      |-------------------------------------------------------------------------|
      
      
      
            T     T
         |3-|  |3-|
         
      
      |-9-16p9-16p9s==7------0---------11-------|
      |-------------------------0-14b16==(14)r--|
      |--------------------8s13-----------------|
      |-----------------------------------------|
      |-----------------------------------------|
      |-----------------------------------------|
      
      
      
         TP   TP   TP     TP   TP   TP   TP  TP      TP
         
      
      |-11---13---14-----16-|-16---18---18--21b23==(21)-----||
      |---------------------|-------------------------------||
      |---------------------|-------------------------------||
      |---------------------|-------------------------------||
      |---------------------|-------------------------------||
      |---------------------|-------------------------------||
      
      
      Tabbed By Noah Aguilar

      Comentários 27

      140 .
      • Flávio Flávio: Em 26/03/2016 12:18

        como toca isso pelo amor de xessussss

      • Ariosto Ariosto: Em 02/10/2015 09:59

        oxi kd a video aula....só tem a tab....heueheuehueheuehue

      • Lucas Lucas: Em 20/08/2014 02:22

        e video aula que é bom nada

      • mcpitter.simoes mcpitter.simoes: Em 15/01/2014 23:04

        entendi nada kkk

      • rubens99 rubens99: Em 29/11/2013 18:45

        video aula pelo amor de Deus!!!!!!

      • joaovitor.miranda.7 joaovitor.miranda.7: Em 02/11/2013 00:10

        n entendi bossssta nenhuma...

      • Tiago Tiago: Em 06/07/2013 11:53

        consegui tocar feitoooo

      • gabriel gabriel: Em 02/05/2013 18:41

        video aula

      • Romulo Romulo: Em 12/03/2013 00:23

        Pelamordedeus .. Necessito de uma Video-Aula, estou a meses tentando aprender essa budega e nada .. Pf façam uma video-aula desse solo ..

      140 cancelar

      conseguiu tocar?

      • •••
      0:00 / 0:00

      Capítulos

        1 versão de violão dificuldade exibições contribuição e correção
        1 versão de guitarra dificuldade exibições contribuição e correção
        1 versão de cavaco dificuldade exibições contribuição e correção
        1 versão de teclado dificuldade exibições contribuição e correção
        play/pausefechar subir/descer velocidade
        6ª corda E5ª corda A4ª corda D3ª corda G2ª corda B1ª corda E
          acordes
          publicidade
          fechar
          ok