Cifra Club

Aprenda

Por Trás da Maquiagem (part. Marília Mendonça)

Michel Teló

Cifra: Principal (violão e guitarra)
Tom: C
[Intro] C  G  Am  F7M/C

E|----3--------3---------------------------------|
B|--1---1~--1----1~--1--3--1/3--5p3--------------|
G|-----------------------------------------------|
D|-----------------------------------------------|
A|-----------------------------------------------|
E|-----------------------------------------------|

E|----3--------3---------------------------------|
B|--1---1~--1----1~--1--3--1/3----1--3--3/5--3---|
G|------------------------------2----------------|
D|-----------------------------------------------|
A|-----------------------------------------------|
E|-----------------------------------------------|

  C                                   G
Chega de se esconder por trás da maquiagem
    Am                                F7M/C
A quem você quer enganar? Deixa de bobagem
  C                                     G
Chega de esconder atrás de um copo de whisky
                                    Am
Por trás desse sorriso, tem uma pessoa triste
      F7M/C    G           F  G
Eu sei, te conheço tão bem

 C
Homem que ama a mulher
                 G
Não borra o seu rímel
                   Am
Ele borra o seu batom
                    F   G
Depois de um beijo bom

    C                          G
E aí, quando vai deixar de sofrer?
    Am                 F  G
E aí, quando vai perceber?
    C                          G
E aí, quando vai deixar de sofrer?
    Am                 F
E aí, quando vai perceber
              G
Que eu sou o cara certo pra você?

( C  G  Am  F7M/C )

E|----3--------3----------------------|
B|--1---1~--1----1~--1--3--1/3--5p3---|
G|------------------------------------|
D|------------------------------------|
A|------------------------------------|
E|------------------------------------|

E|----3--------3----------------------|
B|--1---1~--1----1~--1--3--1/3--5--3--|
G|------------------------------------|
D|------------------------------------|
A|------------------------------------|
E|------------------------------------|

  C                                   G
Chega de se esconder por trás da maquiagem
    Am                                F7M/C
A quem você quer enganar? Deixa de bobagem
  C                                     G
Chega de esconder atrás de um copo de whisky
                                    Am
Por trás desse sorriso, tem uma pessoa triste
      F7M/C    G           F  G
Eu sei, te conheço tão bem

 C
Homem que ama a mulher
                 G
Não borra o seu rímel
                   Am
Ele borra o seu batom
                    F   G
Depois de um beijo bom

    C                          G
E aí, quando vai deixar de sofrer?
    Am                 F  G
E aí, quando vai perceber?
    C                          G
E aí, quando vai deixar de sofrer?
    Am                 F
E aí, quando vai perceber
              G
Que eu sou o cara certo pra você?

[Final] C
Colaboração e revisão:
  • Thiago Almeida
15.357 exibições
    • ½ Tom
    • A
    • Bb
    • B
    • C
    • Db
    • D
    • Eb
    • E
    • F
    • F#
    • G
    • Ab
  • Adicionar à lista

    0 comentários

    Mostrar mais comentários

    Conseguiu tocar?

    1 Tocaram 2 Ainda não

    Grave um vídeo tocando Por Trás da Maquiagem (part. Marília Mendonça) e mande pra gente!

    00:00 / 00:00
    outros vídeos desta música
    repetir qualidade Automático
    Outros vídeos desta música
    00:00 / 00:00
    Automático
    OK