Resting Sound Intro

Midtown

tom: Ab
e----------------------------------------------------------------------------|
b----------------------------------------------------------------------------|
g---------------------------------------10-----------------------------------|
d----12----10h12p10-13-12-10---------10----13-12----13h15-13-12-12h13-12-10--|
a-13----13-------------------13-12~-13-------------13------------------------|
e----------------------------------------------------------------------------|

e----------------------------------------------------------------------------|
b----------------------------------------------------------------------------|
g----------------------------------------10--------10------------------------|
d---12----10h12p10-13-12-10--------10----13-12------13-12-13-13-13-12-12-12--|
a-13----13----------------13-12~-13-----------13----------------------13~----|
e----------------------------------------------------------------------------|

Tabbed By: Livergood
Página 1 / 1

Letras e título
Acordes e artista

resetar configurações
OK