Youve Got A Chanceby Senior Citizen

Midtown

tom: C
You've got a chance tabs

         I made this song myself!!!
                 verse

e ----------------------------------------|
B ----------------------------------------|
G 7-7-7-7-7-7-7-7/10-10-10-10-10-10-10-10-|
D 5-5-5-5-5-5-5-5/9--9--9--9--9--9--9--9--|
A 5-5-5-5-5-5-5-5/9--9--9--9--9--9--9--9--|
E ----------------------------------------|
               repeat many times


                chorus


e ----------------------------------------|
B ----------------------------------------|
G ----------------------------------------|
D 7-7-7-7-7-7-7-7/10-10-10-10-10-10-10-10-|
A 5-5-5-5-5-5-5-5/9--9--9--9--9--9--9--9--|
E 5-5-5-5-5-5-5-5/9--9--9--9--9--9--9--9--|


thats all ive made so far!!!
Página 1 / 1

Letras e título
Acordes e artista

resetar configurações
OK