Cifra Club

Aprenda

Happy Ending

MIKA

Tab de baixo: Principal
Intro:
G ---------|---------|---------|---------|
D ---------|---------|---------|---------|   (2x)
A -4-------|---------|---------|---------|
E ---------|-4-------|-6-------|-2-------|

Verso:
G ---------|---------|
D ---------|---------|   (4x)
A ---------|-----4---|
E -6---4---|-2-------|

Refrão:
G ---------|---------|---------|---------|
D ---------|---------|---------|---------|
A ---------|---------|---------|---------|
E -6-------|-4-------|-2-------|-2---4---|

G ---------|---------|---------|---------|
D ---------|---------|---------|---------|   (4x)
A -4-------|---------|---------|---------|
E ---------|-4-------|-6-------|-2---2-4-|

Verso:
G ---------|---------|
D ---------|---------|   (4x)
A ---------|-----4---|
E -6---4---|-2-------|

Refrão:
G ---------|---------|---------|---------|
D ---------|---------|---------|---------|
A ---------|---4b6b4-|---------|---------|
E -6-------|-4-------|-2-------|-2---4---|

G ---------|---------|---------|---------|
D ---------|---------|---------|---------|   (4x(
A -4-------|---------|---------|---------|
E ---------|-4-------|-6-------|-2---2-4-|

Ponte:
G ---------|---------|---------|---------|
D ---------|---------|---------|---------|   (2x)
A -4-------|---------|---------|---------|
E ---------|-4-------|-6-------|-2-------|

G ---------|---------|---------|---------|
D ---------|---------|---------|---------|   (8x)
A -4---4-6-|---------|-------4-|---------|
E ---------|-4---4-5-|-6---6---|-2---2-4-|

Outro:
G ---------|---------|---------|---------|
D ---------|---------|---------|---------|
A -4-------|---------|---------|---------|
E ---------|-4-------|-6-------|-2-------|
Composição de Mika
104 exibições

0 comentários

Ver todos os comentários

Conseguiu tocar?

1 Tocaram 0 Ainda não

Grave um vídeo tocando Happy Ending e nos envie!

00:00 / 00:00
Outros vídeos desta música
Repetir Qualidade Automático
Outros vídeos desta música
00:00 / 00:00
Automático

Cifra Club Pro

Aproveite o Cifra Club com benefícios exclusivos e sem anúncios
Cifra Club Pro
Aproveite o Cifra Club com benefícios exclusivos e sem anúncios
OK