Cifra Club

North Star Platinum Finale

Mike Oldfield

Cifra: Principal (violão e guitarra)
tom: E
   E  S S E  S S E  S S E  E     E  S S E  S S E  S S E  E     E   S  S E   S  S E   E  E   E
E|-----------------------------|-----------------------------|------------------------------(6)--|
B|-----------------------------|-----------------------------|-----------------------------------|
G|-----------------------------|-----------------------------|-----------------------------------|
D|-----------------------------|-----------------------------|-----------------------------------|
A|-----6-6----6-6----6-6----6--|-----8-8----8-8----8-8----8--|-----10-10----10-10----10------8---|
E|--4------4------4------4-----|--6------6------6------6-----|--8--------8--------8------6-------|

   E   S  S E   S  S E   S  S E   E     E  S S E  S S E  S S E  E     E  S S E  S S E  S S E  E
------------------------------------|-----------------------------|-----------------------------|
------------------------------------|-----------------------------|-----------------------------|
------------------------------------|-----------------------------|-----------------------------|
------------------------------------|-----8-8----8-8----8-8----8--|-----------------------------|
-----10-10----10-10----10-10----10--|--6------6------6------6-----|-----8-8----8-8----8-8----8--|
--8--------8--------8--------8------|-----------------------------|--6------6------6------6-----|

   E   S  S E   S  S E   S  S E   E      E   S  S E   S  S E   S  S E   E
--------------------------------(6)--|------------------------------------|
-------------------------------------|------------------------------------|
-------------------------------------|------------------------------------|
-------------------------------------|------------------------------------|
-----10-10----10-10----10-10-----8---|-----10-10----10-10----10-10----10--|
--8--------8--------8--------6-------|--8--------8--------8--------8------|

2:42

(You can choose your own rhythm for this part)
  E    S S S S E.  E  S             S S S S
--4----4-4-----4---4----------------4-4-4-4s-|
--4----4-4-x-x-4---4--x-------------4-4-4-4s-|
--5----5-5-x-x-5---5--x-------------5-5-5-5s-|
--6----6-6-x-x-6---6--x-------------6-6-6-6s-|
---------------------------------------------|
---------------------------------------------|

  E  S S S S E.  E  S S S S S      E   S  S  S  S  E   E  E  S S S S
--6--6-6-----6---6----6-6-6-6s-|---8---8--8--------8------6--6-6-6-6--|
--6--6-6-x-x-6---6--x-6-6-6-6s-|---8---8--8--x--x--8---x--6--6-6-6-6s-|
--7--7-7-x-x-7---7--x-7-7-7-7s-|---8---8--8--x--x--8---x--7--7-7-7-7s-|
--8--8-8-x-x-8---8--x-8-8-8-8s-|--10--10-10--x--x-10---x--8--8-8-8-8s-|
-------------------------------|--------------------------------------|
-------------------------------|--------------------------------------|

   E   S  S  S  S  E   E  E  S S S S      E     S    S   S  S   E.     E    S   S    S    S    S
---8---8--8--------8------6--6-6-----|--(11)--(11)-(11)-------(11)---(11)-----(11)-(11)-(11)-(11)-|
---8---8--8--x--x--8---x--6--6-6-x-x-|---11----11---11---x--x--11-----11----x--11---11---11---11--|
---8---8--8--x--x--8---x--7--7-7-x-x-|---12----12---12---x--x--12-----12----x--12---12---12---12--|
--10--10-10--x--x-10---x--8--8-8-x-x-|---13----13---13---x--x--13-----13----x--13---13---13---13--|
-------------------------------------|------------------------------------------------------------|
-------------------------------------|------------------------------------------------------------|

  E  S S S S E.  E  S S S S S      E   S  S  S  S  E   E  E  S S S S
--6--6-6-----6---6----6-6-6-6s-|---8---8--8--------8------6--6-6-6-6--|
--6--6-6-x-x-6---6--x-6-6-6-6s-|---8---8--8--x--x--8---x--6--6-6-6-6s-|
--7--7-7-x-x-7---7--x-7-7-7-7s-|---8---8--8--x--x--8---x--7--7-7-7-7s-|
--8--8-8-x-x-8---8--x-8-8-8-8s-|--10--10-10--x--x-10---x--8--8-8-8-8s-|
-------------------------------|--------------------------------------|
-------------------------------|--------------------------------------|

   E   S  S  S  S  E   E  E  S S S S
---8---8--8--------8------6--6-6-----|
---8---8--8--x--x--8---x--6--6-6-x-x-|
---8---8--8--x--x--8---x--7--7-7-x-x-|
--10--10-10--x--x-10---x--8--8-8-x-x-|
-------------------------------------|
-------------------------------------|x2

(affter that repeat first riff till the end)

(guitar - lead)

     W                   W                   W                   W
E|-------------------|-------------------|-------------------|-------------------|
B|-------------------|-------------------|-------------------|-------------------|
G|-------------------|-------------------|-------------------|-------------------|
D|-------------------|-------------------|-------------------|-------------------|
A|-------------------|-------------------|-------------------|-------------------|
E|-------------------|-------------------|-------------------|-------------------|

  W                   W                   W                   W
-------------------|-------------------|-------------------|-------------------|
-------------------|-------------------|-------------------|-------------------|
-------------------|-------------------|-------------------|-------------------|
-------------------|-------------------|-------------------|-------------------|
-------------------|-------------------|-------------------|-------------------|
-------------------|-------------------|-------------------|-------------------|

  W                   W                   W                   W
-------------------|-------------------|-------------------|-------------------|
-------------------|-------------------|-------------------|-------------------|
-------------------|-------------------|-------------------|-------------------|
-------------------|-------------------|-------------------|-------------------|
-------------------|-------------------|-------------------|-------------------|
-------------------|-------------------|-------------------|-------------------|

                                                              Clean guitar
  W                   W                   W                   W
-------------------|-------------------|-------------------|-------------------|
-------------------|-------------------|-------------------|-------------------|
-------------------|-------------------|-------------------|-------------------|
-------------------|-------------------|-------------------|-------------------|
-------------------|-------------------|-------------------|-------------------|
-------------------|-------------------|-------------------|-------------------|

   0'33''
                                  |---3--|
   H        H            Q    E   S   S  S  Q        Q        Q    E  Q     E   Q
---------------------|------------------------------------|---------------------------|
------------L--------|--------L---------------------------|--------L------------------|
--12--------L--------|--10----L--12p-10p-8-10----10g12----|--10----L--8~----L---------|
---------------------|------------------------------------|--------------------10~----|
---------------------|------------------------------------|---------------------------|
---------------------|------------------------------------|---------------------------|

  W                    W                     H          H            W
-------------------|---------------------|-----------------------|---------------------|
-------------------|---------------------|-------------13--------|--11~----------------|
-------------------|--12~----------------|--10~------------------|---------------------|
--L----------------|---------------------|-----------------------|---------------------|
-------------------|---------------------|-----------------------|---------------------|
-------------------|---------------------|-----------------------|---------------------|

                       0:48
                                                        |---3--|
  W                    H         H            Q     E   S   S  S  Q        Q
-------------------|----------------------|-------------------------------------|
--L----------------|----------------------|-------------------------------------|
-------------------|--12~--------L--------|--10~----L--12p-10p-8-10----10g12----|
-------------------|----------------------|-------------------------------------|
-------------------|----------------------|-------------------------------------|
-------------------|----------------------|-------------------------------------|

      Q    E  Q     E   Q        W                    W
------------------------------|-------------------|---------------------|
------------------------------|-------------------|---------------------|
--12g10----L--8~----L---------|-------------------|--12~----------------|
-----------------------10~----|--L----------------|---------------------|
------------------------------|-------------------|---------------------|
------------------------------|-------------------|---------------------|

                                                                         1:05
   H          E    Q     E      W                    W                    W
----------------------------|---------------------|-------------------|--------------------|
-------------13s--15~----L--|--13~----------------|--L----------------|--13----------------|
--10~-----------------------|---------------------|-------------------|--------------------|
----------------------------|---------------------|-------------------|--------------------|
----------------------------|---------------------|-------------------|--------------------|
----------------------------|---------------------|-------------------|--------------------|

            |---3--|
   Q    E   S   S  S  Q        Q        Q      E   Q     E   Q        H         Q     Q
--10----L--11p-10p-8-10----11g13----|--13~-----L--11~----L--10----|-------------------------|
------------------------------------|-----------------------------|--13~--------L----13S----|
------------------------------------|-----------------------------|-------------------------|
------------------------------------|-----------------------------|-------------------------|
------------------------------------|-----------------------------|-------------------------|
------------------------------------|-----------------------------|-------------------------|

   H        Q     Q        H          H            W
-----------------------|-----------------------|--------------------|
--20--------L----20----|--18S--------23--------|--20----------------|
-----------------------|-----------------------|--------------------|
-----------------------|-----------------------|--------------------|
-----------------------|-----------------------|--------------------|
-----------------------|-----------------------|--------------------|

                              1:22
                                                                  |---3---|
  H        Q     S   E  S     H        Q     S   E.      Q    E   S   S   S  Q         Q
--------------------------|--------------------------|--------------------------------------|
--L--------L----20p-18--L-|--20--------L----18h-20---|--18----L--20p-18p-16-18~----18g20----|
--------------------------|--------------------------|--------------------------------------|
--------------------------|--------------------------|--------------------------------------|
--------------------------|--------------------------|--------------------------------------|
--------------------------|--------------------------|--------------------------------------|

      Q    E   Q    E    Q        H        Q     S   E.      H         Q     S   E.
-------------------------------|-------------------------|---------------------------|
--16g18----L--16----LS--13~----|--L--------L----13h-16---|---------------------------|
-------------------------------|-------------------------|--12~--------L----12h-15---|
-------------------------------|-------------------------|---------------------------|
-------------------------------|-------------------------|---------------------------|
-------------------------------|-------------------------|---------------------------|

                                                         Overdriven Guitar
   H         Q     Q        W                   H        Q                 Q
------------------------|--------------------|-----------------------------------|
------------------------|--------------------|-----------------------------------|
------------------15----|--------------------|-----------------------------5S----|
--15~--------L----------|--------------------|-----------------------------------|
------------------------|--15----------------|--L--------------------------------|
------------------------|--------------------|-----------------------------------|

   1'37"
                                 |---3--|
   W                    Q    E   S   S  S  Q        Q        Q    E  Q    E   Q
--------------------|------------------------------------|-------------------------|
--------------------|------------------------------------|-------------------------|
--12----------------|--10----L--12p-10p-8-10----10g12----|--10----L--8----L--------|
--------------------|------------------------------------|-------------------10----|
--------------------|------------------------------------|-------------------------|
--------------------|------------------------------------|-------------------------|

  W                    W                    H         H            W
-------------------|--------------------|----------------------|---------------------|
-------------------|--------------------|------------13--------|--11~----------------|
-------------------|--12----------------|--10------------------|---------------------|
--L----------------|--------------------|----------------------|---------------------|
-------------------|--------------------|----------------------|---------------------|
-------------------|--------------------|----------------------|---------------------|

                              1:54
                   |--3--|                                   |---3--|
  H        Q    E  S S   S    W                    Q     E   S   S  S  Q        Q
---------------------------|-------------------|-------------------------------------|
--L--------L----L--L-8h-11-|--8----------------|-------------------------------------|
---------------------------|-------------------|--10-----L--12p-10p-8-10----10g12----|
---------------------------|-------------------|-------------------------------------|
---------------------------|-------------------|-------------------------------------|
---------------------------|-------------------|-------------------------------------|

   Q    E  Q    E     Q       W                    W                     H         H
----------------------------|-------------------|---------------------|----------------------|
----------------------------|-------------------|---------------------|------------15--------|
--10----L--8----L-----------|-------------------|--12~----------------|--10------------------|
-------------------8g10~----|--L----------------|---------------------|----------------------|
----------------------------|-------------------|---------------------|----------------------|
----------------------------|-------------------|---------------------|----------------------|

                                                2:09
   W                    H        Q    Q         W
---------------------|----------------------|---------------------|
--13~----------------|--L--------L----8S----|--13~----------------|
---------------------|----------------------|---------------------|
---------------------|----------------------|---------------------|
---------------------|----------------------|---------------------|
---------------------|----------------------|---------------------|

             |---3---|
   Q     E   S   S   S  Q        Q           Q    E   Q    E      Q
--------------------------------------|---------------------------------|
--15~----L--16p-15p-13-15----16g18----|--16g18----L--16----L--16g13~----|
--------------------------------------|---------------------------------|
--------------------------------------|---------------------------------|
--------------------------------------|---------------------------------|
--------------------------------------|---------------------------------|

  H        Q    Q         H         Q     S   E.      Q     Q      Q     Q
----------------8s----|--15~--------L----13h-15---|--13~----LS----20-----L----|
--L--------L----------|---------------------------|---------------------------|
----------------------|---------------------------|---------------------------|
----------------------|---------------------------|---------------------------|
----------------------|---------------------------|---------------------------|
----------------------|---------------------------|---------------------------|

                                                          2:27
                                             |---3--|
      W                    H         Q    E  S  S   S     H        Q     S   E.
--20g18~----------------|--L--------18----L--L-15h-18-|--15--------L----15h-18---|
------------------------|-----------------------------|--------------------------|
------------------------|-----------------------------|--------------------------|
------------------------|-----------------------------|--------------------------|
------------------------|-----------------------------|--------------------------|
------------------------|-----------------------------|--------------------------|

             |---3---|
   Q     E   S   S   S  Q        Q           Q    E   Q    E      Q
--------------------------------------|--------------------------------|
--18~----L--20p-18p-16-18----18g20----|--20g18----L--16----L--16g13----|
--------------------------------------|--------------------------------|
--------------------------------------|--------------------------------|
--------------------------------------|--------------------------------|
--------------------------------------|--------------------------------|

  H        Q     S   E.      H         Q     S   E.      H         Q     Q
-------------------------|---------------------------|------------------------|
--L--------L----13h-16---|---------------------------|------------------11----|
-------------------------|--12~--------L----12h-15---|--10~--------L----------|
-------------------------|---------------------------|------------------------|
-------------------------|---------------------------|------------------------|
-------------------------|---------------------------|------------------------|

                                              Break
   W                    H        Q    E   E     W                   W
---------------------|-----------8----L/-----|-------------------|-------------------|
---------------------|-----------------------|-------------------|-------------------|
---------------------|-----------------------|-------------------|-------------------|
--10~----------------|--L--------------------|-------------------|-------------------|
---------------------|-----------------------|-------------------|-------------------|
---------------------|-----------------------|-------------------|-------------------|

  W                   W                   W                   W
-------------------|-------------------|-------------------|-------------------|
-------------------|-------------------|-------------------|-------------------|
-------------------|-------------------|-------------------|-------------------|
-------------------|-------------------|-------------------|-------------------|
-------------------|-------------------|-------------------|-------------------|
-------------------|-------------------|-------------------|-------------------|

                                              3:14
                                                                |---3--|
  W                   H        Q    Q         H         Q    E  S  S   S
-------------------|----------------8S----|--15~--------L----L--L-13h-15p-|
-------------------|----------------------|-------------------------------|
-------------------|----------------------|-------------------------------|
-------------------|----------------------|-------------------------------|
-------------------|----------------------|-------------------------------|
-------------------|----------------------|-------------------------------|

             |---3---|
   Q     E   S   S   S  Q        Q           Q    E   Q     E   Q
--13~----L--15p-13s-11-13----13g15----|--15g13----L--11-----Ls--8----|
--------------------------------------|------------------------------|
--------------------------------------|------------------------------|
--------------------------------------|------------------------------|
--------------------------------------|------------------------------|
--------------------------------------|------------------------------|

  Q    Q    E   E  Q         H         Q    E   E      H          H
--L----L----L\-----8S----|--15~--------L----L--13--|--13S--------20~--------|
-------------------------|-------------------------|------------------------|
-------------------------|-------------------------|------------------------|
-------------------------|-------------------------|------------------------|
-------------------------|-------------------------|------------------------|
-------------------------|-------------------------|------------------------|

                                                    3:32
   W                    H        Q    E   S   S     H         Q     S   E.
--18~----------------|--L--------L----L--15h-18-|--15~--------L----15h-18---|
---------------------|--------------------------|---------------------------|
---------------------|--------------------------|---------------------------|
---------------------|--------------------------|---------------------------|
---------------------|--------------------------|---------------------------|
---------------------|--------------------------|---------------------------|

             |---3---|
   Q     E   S   S   S  Q        Q           Q    E   Q    E      Q
--------------------------------------|--------------------------------|
--18~----L--20p-18p-16-18----18g20----|--20g18----L--16----L--16g13----|
--------------------------------------|--------------------------------|
--------------------------------------|--------------------------------|
--------------------------------------|--------------------------------|
--------------------------------------|--------------------------------|

  H        E   E  Q         H         Q    E   S   S      H          H
------------------8S----|--15~--------L----L--13h-15p-|--13S--------22~--------|
--L--------L\-----------|-----------------------------|------------------------|
------------------------|-----------------------------|------------------------|
------------------------|-----------------------------|------------------------|
------------------------|-----------------------------|------------------------|
------------------------|-----------------------------|------------------------|

                                    Pick              3:48
   W                     H          E   E   Q         W
--20~----------------|--20~--------20\-----15s----|--20~----------------|
---------------------|----------------------------|---------------------|
---------------------|----------------------------|---------------------|
---------------------|----------------------------|---------------------|
---------------------|----------------------------|---------------------|
---------------------|----------------------------|---------------------|

                |---3---|
      Q     E   S   S   S  Q      Q         Q     E   Q    E    Q         H        Q     Q
--22g22~----L--23p-22p-20-22~----23b----|--23b----L--23----Ls--20~----|---L--------L----20----|
----------------------------------------|-----------------------------|-----------------------|
----------------------------------------|-----------------------------|-----------------------|
----------------------------------------|-----------------------------|-----------------------|
----------------------------------------|-----------------------------|-----------------------|
----------------------------------------|-----------------------------|-----------------------|

                                                                          W
              |------3------|
   H          Q      Q      Q         H         Q     Q         H         H
--24b--------24b----24b----24b----|--23b--------L----23b----|--23~--------L--------|
----------------------------------|-------------------------|----------------------|
----------------------------------|-------------------------|----------------------|
----------------------------------|-------------------------|----------------------|
----------------------------------|-------------------------|----------------------|
----------------------------------|-------------------------|----------------------|

            |---3---|
   E    E   S   S   S   E   E    E   E    E      H         Q     Q
--23p--22--22h-23p-22s-20--20s--18--18s--20--|--20~--------L----20s----|
---------------------------------------------|-------------------------|
---------------------------------------------|-------------------------|
---------------------------------------------|-------------------------|
---------------------------------------------|-------------------------|
---------------------------------------------|-------------------------|

   4:05
              |---3---|
    Q      E   S   S   S   Q     Q         Q      Q       Q     E    E
--22~-----L--23p-22p-20h-22----23b----|--23b----23pbr----L----23s--20--|
--------------------------------------|--------------------------------|
--------------------------------------|--------------------------------|
--------------------------------------|--------------------------------|
--------------------------------------|--------------------------------|
--------------------------------------|--------------------------------|

   H         Q     Q         H         Q     S   E.      H         Q     E  S  S
--20~--------L----20s----|--15~--------L----15h-18---|----------------------------|
-------------------------|---------------------------|--18~--------L--------------|
-------------------------|---------------------------|------------------15--L-15h-|
-------------------------|---------------------------|----------------------------|
-------------------------|---------------------------|----------------------------|
-------------------------|---------------------------|----------------------------|

   H         S   E.  E  E         Q        Q     Q     E  E       W
---------------------------|----------------------------------|--------------------|
---------------------------|----------------------------------|--------------------|
--17-----------------------|--------------------17~----L--L\--|--13----------------|
------------15h-17---L--L--|-----------15g17------------------|--13----------------|
---------------------------|--13g15---------------------------|--11----------------|
---------------------------|----------------------------------|--------------------|

                           |---3---|
      W                    E   E   H        H           H        H           W
-----------------------|-----------------------------|--------------------|-------------------|
-----------------------|-----------------------------|--------------------|-------------------|
--13g15----------------|----------17--------L--------|--L--------L--------|--L----------------|
-----15----------------|------17---L--------L--------|--L--------L--------|--L----------------|
-----13----------------|--15---L---L--------L--------|--L--------L--------|--L----------------|
-----------------------|-----------------------------|--------------------|-------------------|

  W
-------------------|-------------------|-------------------|-------------------|
-------------------|-------------------|-------------------|-------------------|
--L----------------|-------------------|-------------------|-------------------|
--L----------------|-------------------|-------------------|-------------------|
--L----------------|-------------------|-------------------|-------------------|
-------------------|-------------------|-------------------|-------------------|
Composição de Philip Glass
Colaboração e revisão:
  • Lizandra
409 exibições
    • ½ Tom
    • A
    • Bb
    • B
    • C
    • Db
    • D
    • Eb
    • E
    • F
    • F#
    • G
    • Ab
  • Adicionar à lista

    0 comentários

    Ver todos os comentários

    Conseguiu tocar?

    0 Tocaram 0 Ainda não

    Grave um vídeo tocando North Star Platinum Finale e nos envie!

    00:00 / 00:00
    Outros vídeos desta música
    Repetir Qualidade Automático
    Outros vídeos desta música
    00:00 / 00:00
    Automático

    Cifra Club Pro

    Aproveite o Cifra Club com benefícios exclusivos e sem anúncios
    Cifra Club Pro
    Aproveite o Cifra Club com benefícios exclusivos e sem anúncios
    OK