Shadow On The Wall

Mike Oldfield

Composição de: Mike Oldfield
tom: C
e|---------------------|------------------|------------------|
B|-------------1-1h3---|------------1-----|-----------1-1h3--|
G|---------2---0-0-0---|---------2--2--0--|-4p0-----0-0-0-0--|
D|------2--------------|------2-----2--0--|------0-----------|
A|-3p0---------0-0h2---|-3p0--------------|-5---------0-0h2--|
E|---------------------|------------------|------------------|
                                                                              

e|---------------------------|------------------|------------------|
B|------------3-3--3-3-1-----|-----------1-1h3--|------------1-----|
G|---------2-------------2---|---------2-0-0----|---------2--2--0--|
D|------2------------------2-|------2-----------|------2-----2--0--|
A|-3p0-----------------------|-3p0-------0-0h2--|-3p0--------------|
E|---------------------------|------------------|------------------|
                                                                              

e|-------------|------------------------|
B|---------1h3-|------------2-2-2-------|
G|-4p0---0-0-0-|---------2--3-3-3-0-----|
D|-----0-------|------2-----0-0-0-2-2---|
A|-5-------0h2-|-3p0--------------3-2---|
E|-------------|--------------------0---|

*
gr8 song, found this tab elsewhere, put it here coz this is best!!
Página 1 / 1

Letras e título
Acordes e artista

resetar configurações
OK