Cifra Club

Aprendi a Viver

Milionário e José Rico

Cifra: Principal (violão e guitarra)
tom: G
[Intro] Am  G  C  E  
        Am  G  C  E 
        C  F  C

            Am             G              C              E
E|---------5~-----------------------------------------------|
B|-5h6-8p6----8-----5h6p5h8~-6---5h6p5h8p5~--6h8~-6p5h6-----|
G|----------------7-------------------------------------7~--|
D|----------------------------------------------------------|
A|----------------------------------------------------------|
E|----------------------------------------------------------|

            Am             G              C             E
E|---------5~---------5---7~-5-----5------------------------|
B|-5h6-8p6----8---6h8---8--------8---8p6p5~---7h8-7p6-------|
G|----------------------------------------------------7~----|
D|----------------------------------------------------------|
A|----------------------------------------------------------|
E|----------------------------------------------------------|

             C     F              C
E|----------------------------------------------------------|
B|-5h6p5------------5---6p5h8p6-5~--------------------------|
G|-------7p5~---7p5---7-------------------------------------|
D|----------------------------------------------------------|
A|----------------------------------------------------------|
E|----------------------------------------------------------|

    E                                        
Não posso mais ficar aqui sozinho, esperando por você
  G                                            C
Acostumei ficar sem seus carinhos, aprendi a viver
    E                                     B7
Na solidão a gente busca apoio em outra pessoa
    G                                       C
Dispenso seu cinismo, pois agora estou numa boa

      E
Nunca mais
        G                     C
Eu vou ter que agüentar suas ofensas
       E                        B7
Outro amor irá suprir minhas carências
     F                    C
Tudo que você um dia me negou

      E
Nunca mais
     G                              C
Você vai ver o meu rosto assim tão triste
    E                         B7
Chorando por um amor que não existe
     F          E     A
E se existiu um dia, acabou

       E                    D
Suas críticas mudaram minha vida
        C#                     F#m
Seus desprezos me fizeram enxergar
           B
Que eu não posso ser assim
      E                          D  A
Tenho que cuidar de mim, eu vou mudar

      E                         D
Procurei o lado bom da nossa história
       C#                        F#m
Muitas vezes se apanha para aprender
     B
Todo erro tem seu preço
       E                D              E
Mesmo assim te agradeço, aprendi com você

( Am  G  C  E )
( Am  G  C  E )
( C  F  C )

      E
Nunca mais
        G                     C
Eu vou ter que agüentar suas ofensas
       E                        Am
Outro amor irá suprir minhas carências
     F                    C
Tudo que você um dia me negou

      E
Nunca mais
     G                              C
Você vai ver o meu rosto assim tão triste
    E                         Am
Chorando por um amor que não existe
     F          E     A
E se existiu um dia, acabou

       E                    D
Suas críticas mudaram minha vida
        C#                     F#m
Seus desprezos me fizeram enxergar
           B
Que eu não posso ser assim
      E                          D  A
Tenho que cuidar de mim, eu vou mudar

      E                         D
Procurei o lado bom da nossa história
       C#                        F#m
Muitas vezes se apanha para aprender
     B
Todo erro tem seu preço
       E                D              E  A  E7  A
Mesmo assim te agradeço, aprendi com você
00:00 / 00:00
Outros vídeos desta música
Repetir
Outros vídeos desta música
Composição de Mozart / Nildo Aquino
Colaboração e revisão:
18.850 exibições
    • ½ Tom
    • A
    • Bb
    • B
    • C
    • Db
    • D
    • Eb
    • E
    • F
    • F#
    • G
    • Ab
  • Adicionar à lista

    0 comentários

    Ver todos os comentários

    Entre para oCifra Club PRO

    Tenha acesso a benefícios exclusivos no App e no Site

    • Chega de anúncios

    • Prioridade de compra em lançamentos

    • Mais recursos no app do Afinador

    • Atendimento Prioritário

    • Descontos nos produtos Cifra Club

    • Ajude a produzir mais conteúdo

    00:00 / 00:00

    Cifra Club Pro

    Aproveite o Cifra Club com benefícios exclusivos e sem anúncios
    Cifra Club Pro
    Aproveite o Cifra Club com benefícios exclusivos e sem anúncios
    OK