Cifra Club

Rotina da Vida

Milionário e José Rico

Cifra: Principal (violão e guitarra)
tom: D
Intro: A  A7  D  D7M  F#m  Em  D  D7
       D  D7M  A  A7  F#m  Em  D  D7  D  D7

    A          A7     D          D7M    F#m      Em      D        D7
E|---------------------------------------------------------------------|
A|----------------------------------5--------------------------5~------|
D|-------------------2/4-4-4-4--2-4-4--5-5/7-4--4-4/5-2--2-2/4-4~------|
G|-4/6-6-6-6--4-6-2--0/2-2-2-2--0-2----4-4/6-2--2-2/4-0--0-0/2---------|
B|---------------------------------------------------------------------|
E|-3/5-5-5-5--3-5-2----------------------------------------------------|

    D          D7M    A          A7     F#m      Em      D        D7
E|---------------------------------------------------------------------|
A|----------------5--------------------------------------------5~------|
D|-2/4-4-4-4--2-4-4--------------------5-5/7-4--4-4/5-2--2-2/4-4~------|
G|-0/2-2-2-2--0-2----4/6-6-6-6--4-6-2--4-4/6-2--2-2/4-0--0-0/2---------|
B|---------------------------------------------------------------------|
E|-------------------3/5-5-5-5--3-5-2----------------------------------|

    D           D7
E|-------------------|
A|-------------------|
D|-------------------|
G|--------------19~--|
B|-14/---14/----19~--|
E|-12/---12/----19~--|

      D                    Bm7
Sou o homem mais pobre dos homens
          G               Em/G
Sempre lutando pra sobreviver
       A7                    A/F#
Na esperança de alcançar a vitória
       A7                D       D7
Esta batalha eu hei de vencer

   A7
No corre-corre da vida
               G                   D
Um sobe outro desce, um vai outro vem
        A7
Nesta rotina também me encontro
              G                  D
Vou ser vitorioso, sem ferir ninguém

( A  A7  D  D7M  F#m  Em  D  D7 )
( D  D7M  A  A7  F#m  Em  D  D7  D  D7 )

       D                 Bm7
Mesmo sendo entendido de tudo
       G                   Em/G
Ainda falta aprender com alguém
        A7                 A/F#
Este alguém que criou o universo
           A7                   D        D7
Este foi o homem mais rico dos homens

   A7
No corre-corre da vida
               G                   D
Um sobe outro desce, um vai outro vem
        A7
Nesta rotina também me encontro
              G                  D
Vou ser vitorioso, sem ferir ninguém

( A  A7  D  D7M  F#m  Em  D  D7 )
( D  D7M  A  A7  F#m  Em  D  D7  D  D7 )

       D                 Bm7
Mesmo sendo entendido de tudo
       G                   Em/G
Ainda falta aprender com alguém
        A7                 A/F#
Este alguém que criou o universo
           A7                   D        D7
Este foi o homem mais rico dos homens

   A7
No corre-corre da vida
               G                   D
Um sobe outro desce, um vai outro vem
        A7
Nesta rotina também me encontro
              G                  D     ( A7 D )
Vou ser vitorioso, sem ferir ninguém
00:00 / 00:00
Outros vídeos desta música
Repetir
Outros vídeos desta música
Composição de José Rico
Colaboração e revisão:
  • Hanz
1.887 exibições
    • ½ Tom
    • A
    • Bb
    • B
    • C
    • Db
    • D
    • Eb
    • E
    • F
    • F#
    • G
    • Ab
  • Adicionar à lista

    0 comentários

    Ver todos os comentários

    Entre para oCifra Club PRO

    Tenha acesso a benefícios exclusivos no App e no Site

    • Chega de anúncios

    • Prioridade de compra em lançamentos

    • Mais recursos no app do Afinador

    • Atendimento Prioritário

    • Descontos nos produtos Cifra Club

    • Ajude a produzir mais conteúdo

    00:00 / 00:00

    Cifra Club Pro

    Aproveite o Cifra Club com benefícios exclusivos e sem anúncios
    Cifra Club Pro
    Aproveite o Cifra Club com benefícios exclusivos e sem anúncios
    OK