Airhead

Millencolin

Composição de: Erik / Larzon / Mathias / Nikola / Nikola Sarcevic
tom: B
Intro
Part 1

e-|----------------------------------|
B-|----------------------------------|
G-|----------------------------------|
D-|----------------------------------|
A-|-9-9-7-7-6-6-4-4--7-7-6-6-4-4-----|
E-|------------------------------6-6-|

Intro 
Part 2 (Play it ska)

e-|-----------------------------|
B-|-----------------------------|
G-|--7--9--7--9--7--9--7--9-----|
D-|--7--9--7--9--7--9--7--9--9--|
A-|--5--7--5--7--5--7--5--7--9--|
E-|--------------------------7--|

Verse (Play it ska)

e-|-------------------------|
B-|-------------------------|
G-|--7--9--7--9--7--9--7--9-|
D-|--7--9--7--9--7--9--7--9-|
A-|--5--7--5--7--5--7--5--7-|
E-|-------------------------| 2x

Chorus 
1:st guitar

e-|--------------------|
B-|--------------------|
G-|------7-7-------7-7-|
D-|-7-7--7-7--9-9--7-7-|
A-|-7-7--5-5--9-9--5-5-|
E-|-5-5-------7-7------| 4x

Chorus 
2:nd guitar (play it during the 2 first times)

e-|-----------------------------------|
B-|-----------------------------------|
G-|-----------------------------------|
D-|------------6----------------------|
A-|-----6-----7---7------8----9-7-6---|
E-|-7-7---7----------9-9---9--------9-| 2x

Then play intro, verse and chorus 

Interlude 
e-|------------------------------|
B-|------------------------------|
G-|------------------------------|
D-|-6/--------9/--------6/-----9-|
A-|-6/--------9/--------6/-----9-|
E-|-4/--------7/--------4/-----7-|


e-|------------------------------------------------|
B-|------------------------------------------------|
G-|------------------------------------------------|
D-|-13-13-13-13--16-16-16-16--13-13-13-13--11----9-|
A-|-13-13-13-13--16-16-16-16--13-13-13-13--11----9-|
E-|-11-11-11-11--14-14-14-14--11-11-11-11--9-----7-|

During solo play  same chords as verse. Ends with same chords as churos.
Página 1 / 1

Letras e título
Acordes e artista

resetar configurações
OK