Cifra Club

Bullion

Millencolin

Tab de baixo: Principal
Intro and Outro:
G --------------------------------------------------------------------
D --------------------------------------------------------------------
A --5-------------2---------------------------------------------------
E ----5-3-----------3-5-----------------------------------------------

Pre-Verse:
G --------------------------------------------------------------------
D --------------------------------------------------------------------
A --5-------------2---------------------------------------------------
E ----5-3---3-3-3---3-5---5-5-5---------------------------------------

Verse and Chorus:
G---------------------------------------------------------------------
D --------------------------------------------------------------------
A --5555555555555555--------------------------------2222222200000000--
E ------------------55555555555555553333333333333333------------------

Bridge:
G --------------------------------------------------------------------
D --------------------------------------------------------------------
A --5-----5-4-2-0-------45--------------------------------------------
E ----------------3----------------3----------------------------------

G --------------------------------------------------------------------
D --------------------------------------------------------------------
A --7777777777777777----------------2222222222222222------------------
E ------------------7777777777777777----------------3333333333333333--


_______________________________________________________
Contribuição: Thiago Donghia Badaró(thiagobadaro@hotmail.com)
00:00 / 00:00
Outros vídeos desta música
Repetir
Outros vídeos desta música
Composição de Erik / Larzon / Mathias / Nikola / Nikola Sarcevic
3.409 exibições

0 comentários

Ver todos os comentários

Conseguiu tocar?

0 Tocaram 0 Ainda não

Grave um vídeo tocando Bullion e nos envie!

00:00 / 00:00

Cifra Club Pro

Aproveite o Cifra Club com benefícios exclusivos e sem anúncios
Cifra Club Pro
Aproveite o Cifra Club com benefícios exclusivos e sem anúncios
OK