Cifra Club

Domestic Subway

Millencolin

Cifra: Principal (violão e guitarra)
tom: D
INTRO:

e-|------------------------|
B-|------------------------|
G-|-11-12^-11-9-7---9^-9-7-|
D-|---------------7--------|
A-|------------------------|
E-|------------------------|

VERSE:

e-|-----------------------------------------------------------------------|
B-|-----------------------------------------------------------------------|
G-|-----------------------------------------------------------------------|
D-|-----------------------------------------------------------------------|
A-|-9-X-9-X-5-X-7-X-9-X-9-5-5-5-4-4-4-9-X-9-X-5-X-7-X-9-X-9-5-5-5-5-4-4-4-|
E-|-7-X-7-X-3-X-5-X-7-X-7-------------7-X-7-X-3-X-5-X-7-X-7---------------|

e-|-----------------------------------|
B-|-----------------------------------|
G-|-----------------------------------|
D-|-----------------------------------|
A-|-9-9-7-7-5-5-7-7-9-9-9-9-9-9-7--5--|
E-|-7-7-5-5-3-3-5-5-7-7-7-7-7-7-5--3--|

CHORUS:

e-|---------------------------------|
B-|---------------------------------|
G-|---------------------------------|
D-|---------7-7-7-7---------9-9-----|
A-|-9-9-9-9-5-5-5-5-7-7-7-7-7-7-7-7-|
E-|-7-7-7-7---------5-5-5-5-----5-5-|

SOLO:
e-|---------------------------------------------------------------------|
B-|----10---------------------------------12-10-12-10----12-14-15-14-12-|
G-|-11----11-9-7-----------------11-9-7---------------11----------------|
D-|--------------9---------7------------9-------------------------------|
A-|----------------7-7-8-9---9-9----------------------------------------|
E-|---------------------------------------------------------------------|
00:00 / 00:00
Outros vídeos desta música
Repetir
Outros vídeos desta música
Composição de Millencolin / Nikola Sarcevic
1.729 exibições
    • ½ Tom
    • A
    • Bb
    • B
    • C
    • Db
    • D
    • Eb
    • E
    • F
    • F#
    • G
    • Ab
  • Adicionar à lista

    0 comentários

    Ver todos os comentários

    Conseguiu tocar?

    0 Tocaram 0 Ainda não

    Grave um vídeo tocando Domestic Subway e nos envie!

    Entre para oCifra Club PRO

    Tenha acesso a benefícios exclusivos no App e no Site

    • Chega de anúncios

    • Prioridade de compra em lançamentos

    • Mais recursos no app do Afinador

    • Atendimento Prioritário

    • Descontos nos produtos Cifra Club

    • Ajude a produzir mais conteúdo

    00:00 / 00:00

    Cifra Club Pro

    Aproveite o Cifra Club com benefícios exclusivos e sem anúncios
    Cifra Club Pro
    Aproveite o Cifra Club com benefícios exclusivos e sem anúncios
    OK