Cifra Club

Entrance at Rudebrook

Millencolin

Cifra: Principal (violão e guitarra)
tom: A
(Ska-rythm:)

INTRO:

GUITAR1:

E |--------------------------------------------------------------------
B |--------------------------------------------------------------------
G |--------------------------------------------------------------------
D |--12----------11----------12----------11----------12----------11----
A |--12----------12----------12----------12----------12----------12----
E |--------------------------------------------------------------------

GUITAR2:

E |------------------------------
B |--*--*--15-15--*--*--14-14----
G |--*--*--14-14--*--*--14-14----
D |------------------------------
A |------------------------------
E |------------------------------ (x3)

BOTH: G, A

VERSE: D, G, B5 (x4)

CHORUS: G, A, D, B5
        G, A

VERSE:

CHORUS:

BRIDGE: (Same as the intro:) (Repeat a couple of times:)

SOLO: (If you wan´t this solo just e-mail us:)

BRIDGE2: D, G, B5 (x2)

CHORUS: G, A, D, B5 (x3)
        G, A
        D, B5, G, A
        D
00:00 / 00:00
Outros vídeos desta música
Repetir
Outros vídeos desta música
Composição de Nikola Sarcevic
2.296 exibições
    • ½ Tom
    • A
    • Bb
    • B
    • C
    • Db
    • D
    • Eb
    • E
    • F
    • F#
    • G
    • Ab
  • Adicionar à lista

    0 comentários

    Ver todos os comentários

    Conseguiu tocar?

    0 Tocaram 0 Ainda não

    Grave um vídeo tocando Entrance at Rudebrook e nos envie!

    Entre para oCifra Club PRO

    Tenha acesso a benefícios exclusivos no App e no Site

    • Chega de anúncios

    • Prioridade de compra em lançamentos

    • Mais recursos no app do Afinador

    • Atendimento Prioritário

    • Descontos nos produtos Cifra Club

    • Ajude a produzir mais conteúdo

    00:00 / 00:00

    Cifra Club Pro

    Aproveite o Cifra Club com benefícios exclusivos e sem anúncios
    Cifra Club Pro
    Aproveite o Cifra Club com benefícios exclusivos e sem anúncios
    OK