Cifra Club

Aprenda

Happiness for dogs

Millencolin

Cifra: Principal (violão e guitarra)
Tom: G
Intro 1st part
 (0:00) Left Guitar
E|---------------------------------------------------------------------------|
B|---------------------------------------------------------------------------|
G|---------------------------------------------------------------------------|
D|--10\7--7--10-12-9--9-9-9-9/10--10--9--------------------------------------|
A|---0----0---0--0-0--0-0-0-0------0--0--10----------------------------------|
E|----------------------------------------0----------------------------------|
 |
 |Right Guita
E|---------------------------------------------------------------------------|
B|---------------------------------------------------------------------------|
G|---------------------------------------------------------------------------|
D|---------------------------------------------------------------------------|
A|---------------------------------------------------------------------------|
E|---------------------------------------------------------------------------|

 
 Intro 2n part
 (0:05) Left Guitar
E|---------------------------------------------------------------------------|
B|---------------------------------------------------------------------------|
G|---------------------------------------------------------------------------|
D|--10\7--7--10-12-9--9-9-9-9/10--10--9--------------------------------------|
A|---0----0---0--0-0--0-0-0-0------0--0--10----------------------------------|
E|----------------------------------------0----------------------------------|
 |
 |Right Guitar
E|---------------------------------------------------------------------------|
B|---------------------------------------------------------------------------|
G|---------------------------------------------------------------------------|
D|--7------------------------------------------------------------------------|
A|--7-------------------------Pick Slide-------------------------------------|
E|--5------------------------------------------------------------------------|
                                                                              



 2nd Intro (Repeat x2)
 (0:10) Left Guitar Intro 2nd part
E|---------------------------------------------------------------------------|
B|---------------------------------------------------------------------------|
G|--12/14--14--14-14-14-12-14-16--16-16-16-16/17-17-17--16-16-16--12-12-12---|
D|---*--*---*---*--*--*--*--*--*---*--*--*--*--*--*--*---*--*--*---*--*--*---|
A|--10/12--12--12-12-12-10-12-14--14-14-14-14/15-15-15--14-14-14--10-10-10---|
E|---------------------------------------------------------------------------|
 |
 |Right Guitar
E|---------------------------------------------------------------------------|
B|---------------------------------------------------------------------------|
G|-----------------------9-9-9-----------------------------------------------|
D|--7--7--7-7-7-7--7--7--9-9-9-3--3--3-3-3-3--3-3--5-5-5---------------------|
A|--7--7--7-7-7-7--7--7--7-7-7-3--3--3-3-3-3--3-3--5-5-5---------------------|
E|--5--5--5-5-5-5--5--5--------1--1--1-1-1-1--1-1--3-3-3---------------------|



 Verse 1st part
 (0:31) Left Guitar
E|---------------------------------------------------------------------------|
B|---------------------------------------------------------------------------|
G|---------------------------------------------------------------------------|
D|--7--7-7----7-7-7----7-7-7----7-7-7-3--3-3----3-3-3----3-3-3----3-3-3------|
A|--x--x-x----x-x-x----x-x-x----x-x-x-x--x-x----x-x-x----x-x-x----x-x-x------|
E|--5--5-5----5-5-5----5-5-5----5-5-5-1--1-1----1-1-1----1-1-1----1-1-1------|
 | 
 |Right Guitar
E|---------------------------------------------------------------------------|
B|---------------------------------------------------------------------------|
G|---------------------------------------------------------------------------|
D|---------------------------------------------------------------------------|
A|---------------------------------------------------------------------------|
E|---------------------------------------------------------------------------|

 Verse 2nd part
 (0:41) Left Guitar
E|---------------------------------------------------------------------------|
B|---------------------------------------------------------------------------|
G|---------------------------------------------------------------------------|
D|--7--7-7----7-7-7----7-7-7----7-7-7-3--3-3----3-3-3----3-3-3----3-3-3------|
A|--x--x-x----x-x-x----x-x-x----x-x-x-x--x-x----x-x-x----x-x-x----x-x-x------|
E|--5--5-5----5-5-5----5-5-5----5-5-5-1--1-1----1-1-1----1-1-1----1-1-1------|
 | 
 |Right Guitar
E|---------------------------------------------------------------------------|
B|---------------------------------------------------------------------------|
G|---------------------------------------------------------------------------|
D|--10p7-7----10p7-7--10p7-7----10p7--10p7-7----10p7-7--10p7-7----10p7-------|
A|---------------------------------------------------------------------------|
E|---------------------------------------------------------------------------|


 Pre-Corus
 (0:49) Left Guitar
E|---------------------------------------------------------------------------|
B|---------------------------------------------------------------------------|
G|---------------------------------------------------------------------------|
D|--3-3-3-3-3-3-3-3-5-5-5-5-5-5-5-5------------------------------------------|
A|--3-3-3-3-3-3-3-3-5-5-5-5-5-5-5-5------------------------------------------|
E|--1-1-1-1-1-1-1-1-3-3-3-3-3-3-3-3------------------------------------------|
 |
 |Right Guitar
E|---------------------------------------------------------------------------|
B|---------------------------------------------------------------------------|
G|--5-5-5-5-5-5-5-5-7-7-7-7-7-7-7-7------------------------------------------|
D|--*-*-*-*-*-*-*-*-*-*-*-*-*-*-*-*------------------------------------------|
A|--3-3-3-3-3-3-3-3-5-5-5-5-5-5-5-5------------------------------------------|
E|---------------------------------------------------------------------------|



 Chorus 1st part
 (0:51) Left Guitar
E|---------------------------------------------------------------------------|
B|---------------------------------------------------------------------------|
G|--5--5--5-5-5--------------------------------------------------------------|
D|--5--5--5-5-5-5--5--5-5-5--7--7--7-7-7--3--3--3-3-3--5---------------------|
A|--3--3--3-3-3-5--5--5-5-5--7--7--7-7-7--3--3--3-3-3--5---------------------|
E|--------------3--3--3-3-3--5--5--5-5-5--1--1--1-1-1--3---------------------|
 |
 |Right Guitar
E|---------------------------------------------------------------------------|
B|---------------------------------------------------------------------------|
G|--9-9-9-9-10-10-12-12-12-12-14-14-17-17-17-16-16-16-14-14-14-12-14-12------|
D|--*-*-*-*--*--*--*--*--*--*--*--*--*--*--*--*--*--*--*--*--*--*--*-*-------|
A|--7-7-7-7--8--8-10-10-10-10-12-12-15-15-15-14-14-14-12-12-12-10-12-10------|
E|---------------------------------------------------------------------------|


 Chorus 2nd part
 (1:01) Left Guitar
E|---------------------------------------------------------------------------|
B|---------------------------------------------------------------------------|
G|--5--5--5-5-5--------------------------------------------------------------|
D|--5--5--5-5-5-5--5--5-5-5--7-7-7--5-5-5--3-3-3--5-5-5----------------------|
A|--3--3--3-3-3-5--5--5-5-5--7-7-7--5-5-5--3-3-3--5-5-5----------------------|
E|--------------3--3--3-3-3--5-5-5--3-3-3--1-1-1--3-3-3----------------------|
 |
 |Right Guitar
E|---------------------------------------------------------------------------|
B|---------------------------------------------------------------------------|
G|--9-9-9-9-10-10-12-12-12-12-14-14-17-17-17-16-16-16-14-14-14-12-14-12------|
D|--*-*-*-*--*--*--*--*--*--*--*--*--*--*--*--*--*--*--*--*--*--*--*-*-------|
A|--7-7-7-7--8--8-10-10-10-10-12-12-15-15-15-14-14-14-12-12-12-10-12-10------|
E|---------------------------------------------------------------------------|




 Intro Repeat x2
 (1:11) Left Guitar
E|---------------------------------------------------------------------------|
B|---------------------------------------------------------------------------|
G|--12/14--14--14-14-14-12-14-16--16-16-16-16/17-17-17--16-16-16--12-12-12---|
D|---*--*---*---*--*--*--*--*--*---*--*--*--*--*--*--*---*--*--*---*--*--*---|
A|--10/12--12--12-12-12-10-12-14--14-14-14-14/15-15-15--14-14-14--10-10-10---|
E|---------------------------------------------------------------------------|
 |
 |Right Guitar
E|---------------------------------------------------------------------------|
B|---------------------------------------------------------------------------|
G|-----------------------9-9-9-----------------------------------------------|
D|--7--7--7-7-7-7--7--7--9-9-9-3--3--3-3-3-3--3-3--5-5-5---------------------|
A|--7--7--7-7-7-7--7--7--7-7-7-3--3--3-3-3-3--3-3--5-5-5---------------------|
E|--5--5--5-5-5-5--5--5--------1--1--1-1-1-1--1-1--3-3-3---------------------|



 Verse 1st part
 (1:22) Left Guitar
E|---------------------------------------------------------------------------|
B|---------------------------------------------------------------------------|
G|---------------------------------------------------------------------------|
D|--3/7---------------------------------7\3----------------------------------|
A|---------------------------------------------------------------------------|
E|--1/5---------------------------------5\1----------------------------------|
 |
 |Right Guitar
E|---------------------------------------------------------------------------|
B|---------------------------------------------------------------------------|
G|---------------------------------------------------------------------------|
D|--10p7-7----10p7-7--10p7-7----10p7--10p7-7----10p7-7--10p7-7----10p7-------|
A|---------------------------------------------------------------------------|
E|---------------------------------------------------------------------------|

 Verse 2nd part
 (1:32) Left Guitar
E|---------------------------------------------------------------------------|
B|---------------------------------------------------------------------------|
G|---------------------------------------------------------------------------|
D|--7--7-7----7-7-7----7-7-7----7-7-7-3--3-3----3-3-3----3-3-3----3-3-3------|
A|--x--x-x----x-x-x----x-x-x----x-x-x-x--x-x----x-x-x----x-x-x----x-x-x------|
E|--5--5-5----5-5-5----5-5-5----5-5-5-1--1-1----1-1-1----1-1-1----1-1-1------|
 |
 |Right Guitar
E|---------------------------------------------------------------------------|
B|---------------------------------------------------------------------------|
G|------------------------------------5--5-5----5-5-5----5-5-5----5-5-5------|
D|--7--7-7----7-7-7----7-7-7----7-7-7-*--*-*----*-*-*----*-*-*----*-*-*------|
A|--*--*-*----*-*-*----*-*-*----*-*-*-3--3-3----3-3-3----3-3-3----3-3-3------|
E|--5--5-5----5-5-5----5-5-5----5-5-5----------------------------------------|



 Pre-Corus
 (1:39) Left Guitar
E|---------------------------------------------------------------------------|
B|---------------------------------------------------------------------------|
G|---------------------------------------------------------------------------|
D|--3-3-3-3-3-3-3-3-5-5-5-5-5-5-5-5------------------------------------------|
A|--3-3-3-3-3-3-3-3-5-5-5-5-5-5-5-5------------------------------------------|
E|--1-1-1-1-1-1-1-1-3-3-3-3-3-3-3-3------------------------------------------|
 |
 |Right Guitar
E|---------------------------------------------------------------------------|
B|---------------------------------------------------------------------------|
G|--5-5-5-5-5-5-5-5-7-7-7-7-7-7-7-7------------------------------------------|
D|--*-*-*-*-*-*-*-*-*-*-*-*-*-*-*-*------------------------------------------|
A|--3-3-3-3-3-3-3-3-5-5-5-5-5-5-5-5------------------------------------------|
E|---------------------------------------------------------------------------|




 Chorus 1st part
 (1:42) Left Guitar
E|---------------------------------------------------------------------------|
B|---------------------------------------------------------------------------|
G|--5--5--5-5-5--------------------------------------------------------------|
D|--5--5--5-5-5-5--5--5-5-5--7--7--7-7-7--3--3--3-3-3--5---------------------|
A|--3--3--3-3-3-5--5--5-5-5--7--7--7-7-7--3--3--3-3-3--5---------------------|
E|--------------3--3--3-3-3--5--5--5-5-5--1--1--1-1-1--3---------------------|
 |
 |Right Guitar
E|---------------------------------------------------------------------------|
B|---------------------------------------------------------------------------|
G|--9-9-9-9-10-10-12-12-12-12-14-14-17-17-17-16-16-16-14-14-14-12-14-12------|
D|--*-*-*-*--*--*--*--*--*--*--*--*--*--*--*--*--*--*--*--*--*--*--*-*-------|
A|--7-7-7-7--8--8-10-10-10-10-12-12-15-15-15-14-14-14-12-12-12-10-12-10------|
E|---------------------------------------------------------------------------|



 Chorus 2nd part
 (1:52) Left Guitar
E|---------------------------------------------------------------------------|
B|---------------------------------------------------------------------------|
G|--5--5--5-5-5--------------------------------------------------------------|
D|--5--5--5-5-5-5--5--5-5-5--7-7-7--5-5-5--3-3-3--5-5-5----------------------|
A|--3--3--3-3-3-5--5--5-5-5--7-7-7--5-5-5--3-3-3--5-5-5----------------------|
E|--------------3--3--3-3-3--5-5-5--3-3-3--1-1-1--3-3-3----------------------|
 |
 |Right Guitar
E|---------------------------------------------------------------------------|
B|---------------------------------------------------------------------------|
G|--9-9-9-9-10-10-12-12-12-12-14-14-17-17-17-16-16-16-14-14-14-12-14-12------|
D|--*-*-*-*--*--*--*--*--*--*--*--*--*--*--*--*--*--*--*--*--*--*--*-*-------|
A|--7-7-7-7--8--8-10-10-10-10-12-12-15-15-15-14-14-14-12-12-12-10-12-10------|
E|---------------------------------------------------------------------------|


 Corus extension
 (2:03) Left Guitar
E|---------------------------------------------------------------------------|
B|---------------------------------------------------------------------------|
G|---------------------------------------------------------------------------|
D|--7-7-7--5-5-5--3-3-3--5-5-5-----------------------------------------------|
A|--7-7-7--5-5-5--3-3-3--5-5-5-----------------------------------------------|
E|--5-5-5--3-3-3--1-1-1--3-3-3-----------------------------------------------|
 |
 |Right Guitar
E|---------------------------------------------------------------------------|
B|---------------------------------------------------------------------------|
G|--17-17-17-16-16-16-14-14-14-12-14-12--------------------------------------|
D|---*--*--*--*--*--*--*--*--*--*--*--*--------------------------------------|
A|--15-15-15-14-14-14-12-12-12-10-12-10--------------------------------------|
E|---------------------------------------------------------------------------|




 Before Bridge
 (2:07) Left Guitar
E|---------------------------------------------------------------------------|
B|---------------------------------------------------------------------------|
G|---------------------------------------------------------------------------|
D|--7--7-7----7-7-7----7-7-7----7-7-7-3--3-3----3-3-3----3-3-3----3-3-3------|
A|--x--x-x----x-x-x----x-x-x----x-x-x-x--x-x----x-x-x----x-x-x----x-x-x------|
E|--5--5-5----5-5-5----5-5-5----5-5-5-1--1-1----1-1-1----1-1-1----1-1-1------|
 |
 |Right Guitar
E|---------------------------------------------------------------------------|
B|---------------------------------------------------------------------------|
G|------------------------------------5--5-5----5-5-5----5-5-5----5-5-5------|
D|--7--7-7----7-7-7----7-7-7----7-7-7-*--*-*----*-*-*----*-*-*----*-*-*------|
A|--*--*-*----*-*-*----*-*-*----*-*-*-3--3-3----3-3-3----3-3-3----3-3-3------|
E|--5--5-5----5-5-5----5-5-5----5-5-5----------------------------------------|




 (2:17) Left Guitar
E|---------------------------------------------------------------------------|
B|---------------------------------------------------------------------------|
G|---------------------------------------------------------------------------|
D|--5--5---------------------------------------------------------------------|
A|--5--5---------------------------------------------------------------------|
E|--3--3---------------------------------------------------------------------|
 |
 |Right Guitar
E|---------------------------------------------------------------------------|
B|---------------------------------------------------------------------------|
G|--5--5---------------------------------------------------------------------|
D|--*--*---------------------------------------------------------------------|
A|--3--3---------------------------------------------------------------------|
E|---------------------------------------------------------------------------|



 Bridge
 (2:18) Left Guitar
E|---------------------------------------------------------------------------|
B|---------------------------------------------------------------------------|
G|---------------------------------------------------------------------------|
D|--3--3--3-3-3--5--5--5-5-5--7--7--7-7-7--2--2--2-2-2-----------------------|
A|--3--3--3-3-3--5--5--5-5-5--7--7--7-7-7--2--2--2-2-2-----------------------|
E|--1--1--1-1-1--3--3--3-3-3--5--5--5-5-5--0--0--0-0-0-----------------------|
 |
 |Right Guitar
E|---------------------------------------------------------------------------|
B|---------------------------------------------------------------------------|
G|---------------------------------------------------------------------------|
D|--3--3--3-3-3--5--5--5-5-5--7--7--7-7-7--2--2--2-2-2-----------------------|
A|--3--3--3-3-3--5--5--5-5-5--7--7--7-7-7--2--2--2-2-2-----------------------|
E|--1--1--1-1-1--3--3--3-3-3--5--5--5-5-5--0--0--0-0-0-----------------------|


 Bridge 2nd part
 (2:22) Left Guitar
E|---------------------------------------------------------------------------|
B|---------------------------------------------------------------------------|
G|---------------------------------------------------------------------------|
D|--3--3--3-3-3--5--5--5-5-5-------------------------------------------------|
A|--3--3--3-3-3--5--5--5-5-5----------------7p5--7p5-7p5---------------------|
E|--1--1--1-1-1--3--3--3-3-3--5p3--5p3-5p3-----------------------------------|
 |
 |Right Guitar
E|---------------------------------------------------------------------------|
B|---------------------------------------------------------------------------|
G|------------------------------------------5p4--5p4-5p4---------------------|
D|--3--3--3-3-3--5--5--5-5-5-------------------------------------------------|
A|--3--3--3-3-3--5--5--5-5-5--3p2--3p2-3p2-----------------------------------|
E|--1--1--1-1-1--3--3--3-3-3-------------------------------------------------|

 Bridge 3rd part
 (2:27) Left Guitar
E|---------------------------------------------------------------------------|
B|---------------------------------------------------------------------------|
G|---------------------------------------------------------------------------|
D|--3--3--3-3-3--5--5--5-5-5--7--7--7-7-7--2--2--2-2-2-----------------------|
A|--3--3--3-3-3--5--5--5-5-5--7--7--7-7-7--2--2--2-2-2-----------------------|
E|--1--1--1-1-1--3--3--3-3-3--5--5--5-5-5--0--0--0-0-0-----------------------|
 |
 |Right Guitar
E|---------------------------------------------------------------------------|
B|---------------------------------------------------------------------------|
G|---------------------------------------------------------------------------|
D|--3--3--3-3-3--5--5--5-5-5--7--7--7-7-7--2--2--2-2-2-----------------------|
A|--3--3--3-3-3--5--5--5-5-5--7--7--7-7-7--2--2--2-2-2-----------------------|
E|--1--1--1-1-1--3--3--3-3-3--5--5--5-5-5--0--0--0-0-0-----------------------|

 Bridge 4th part
 (2:33) Left Guitar
E|---------------------------------------------------------------------------|
B|---------------------------------------------------------------------------|
G|---------------------------------------------------------------------------|
D|--3--3--3-3-3--5-----------------------------------------------------------|
A|--3--3--3-3-3--5-----------------------------------------------------------|
E|--1--1--1-1-1--3-----------------------------------------------------------|
 |
 |Right Guitar
E|---------------------------------------------------------------------------|
B|---------------------------------------------------------------------------|
G|---------------------------------------------------------------------------|
D|--3--3--3-3-3--5-----------------------------------------------------------|
A|--3--3--3-3-3--5-----------------------------------------------------------|
E|--1--1--1-1-1--3-----------------------------------------------------------|



 Chorus 1st part
 (2:36) Left Guitar
E|---------------------------------------------------------------------------|
B|---------------------------------------------------------------------------|
G|--5--5--5-5-5--------------------------------------------------------------|
D|--5--5--5-5-5-5--5--5-5-5--7--7--7-7-7--3--3--3-3-3--5---------------------|
A|--3--3--3-3-3-5--5--5-5-5--7--7--7-7-7--3--3--3-3-3--5---------------------|
E|--------------3--3--3-3-3--5--5--5-5-5--1--1--1-1-1--3---------------------|
 |
 |Right Guitar
E|---------------------------------------------------------------------------|
B|---------------------------------------------------------------------------|
G|--9-9-9-9-10-10-12-12-12-12-14-14-17-17-17-16-16-16-14-14-14-12-14-12------|
D|--*-*-*-*--*--*--*--*--*--*--*--*--*--*--*--*--*--*--*--*--*--*--*-*-------|
A|--7-7-7-7--8--8-10-10-10-10-12-12-15-15-15-14-14-14-12-12-12-10-12-10------|
E|---------------------------------------------------------------------------|

 Chorus 2nd part
 (2:46) Left Guitar
E|---------------------------------------------------------------------------|
B|---------------------------------------------------------------------------|
G|--5--5--5-5-5--------------------------------------------------------------|
D|--5--5--5-5-5-5--5--5-5-5--7-7-7--5-5-5--3-3-3--5-5-5----------------------|
A|--3--3--3-3-3-5--5--5-5-5--7-7-7--5-5-5--3-3-3--5-5-5----------------------|
E|--------------3--3--3-3-3--5-5-5--3-3-3--1-1-1--3-3-3----------------------|
 |
 |Right Guitar
E|---------------------------------------------------------------------------|
B|---------------------------------------------------------------------------|
G|--9-9-9-9-10-10-12-12-12-12-14-14-17-17-17-16-16-16-14-14-14-12-14-12------|
D|--*-*-*-*--*--*--*--*--*--*--*--*--*--*--*--*--*--*--*--*--*--*--*-*-------|
A|--7-7-7-7--8--8-10-10-10-10-12-12-15-15-15-14-14-14-12-12-12-10-12-10------|
E|---------------------------------------------------------------------------|

 Extension Chorus 1st part
 (2:56) Chorus Left Guitar
E|---------------------------------------------------------------------------|
B|---------------------------------------------------------------------------|
G|--5--5--5-5-5--------------------------------------------------------------|
D|--5--5--5-5-5-5--5--5-5-5--7-7-7--5-5-5--3-3-3--5-5-5----------------------|
A|--3--3--3-3-3-5--5--5-5-5--7-7-7--5-5-5--3-3-3--5-5-5----------------------|
E|--------------3--3--3-3-3--5-5-5--3-3-3--1-1-1--3-3-3----------------------|
 |
 |Right Guitar
E|---------------------------------------------------------------------------|
B|---------------------------------------------------------------------------|
G|--17-17-17-17-16-16-14-14-16-16-12-17-17-17-16-16-16-14-14-14-12-14-12-----|
D|---*--*--*--*--*--*--*--*--*--*--*--*--*--*--*--*--*--*--*--*--*--*--*-----|
A|--15-15-15-15-14-14-12-12-14-14-10-15-15-15-14-14-14-12-12-12-10-12-10-----|
E|---------------------------------------------------------------------------|

 Extension Chorus 2nd part
 (3:06) Left Guitar
E|---------------------------------------------------------------------------|
B|---------------------------------------------------------------------------|
G|--5--5--5-5-5--------------------------------------------------------------|
D|--5--5--5-5-5-5--5--5-5-5--7--7--7-7-7--3--3--3-3-3--5---------------------|
A|--3--3--3-3-3-5--5--5-5-5--7--7--7-7-7--3--3--3-3-3--5---------------------|
E|--------------3--3--3-3-3--5--5--5-5-5--1--1--1-1-1--3---------------------|
 |
 |Right Guitar
E|---------------------------------------------------------------------------|
B|---------------------------------------------------------------------------|
G|--9-9-9-9-10-10-12-12-12-12-14-14-17-17-17-16-16-16-14-14-14-12-14-12------|
D|--*-*-*-*--*--*--*--*--*--*--*--*--*--*--*--*--*--*--*--*--*--*--*-*-------|
A|--7-7-7-7--8--8-10-10-10-10-12-12-15-15-15-14-14-14-12-12-12-10-12-10------|
E|---------------------------------------------------------------------------|

 End Note Both Guitars
 (3:17)
E|-----|
B|-----|
G|--5--|
D|--5--|
A|--3--|
E|-----|
Composição de Mathias Färm / Nikola Sarcevic
5.379 exibições
    • ½ Tom
    • A
    • Bb
    • B
    • C
    • Db
    • D
    • Eb
    • E
    • F
    • F#
    • G
    • Ab
  • Adicionar à lista

    0 comentários

    Mostrar mais comentários

    Conseguiu tocar?

    0 Tocaram 0 Ainda não

    Grave um vídeo tocando Happiness for dogs e mande pra gente!

    00:00 / 00:00
    outros vídeos desta música
    repetir qualidade Automático
    Outros vídeos desta música
    00:00 / 00:00
    Automático

    Cifra Club Pro

    Aproveite o Cifra Club com benefícios exclusivos e sem anúncios
    7 dias grátis
    Cifra Club Pro
    Aproveite o Cifra Club com benefícios exclusivos e sem anúncios
    7 dias grátis
    OK