Jellygoose

Millencolin

Composição de: Erik / Larzon / Mathias / Nikola / Nikola Sarcevic
tom: G
intro: D chord 4x

first verse
 
    D                 B                 G        A      

e-|------------------------------------------------------|
B-|------------------------------------------------------|
G-|-7-7-7-7--7-7-7-7--4-4-4-4--4-4-4-4-------------------| 
D-|-7-7-7-7--7-7-7-7--4-4-4-4--4-4-4-4--5-5-5-5--7-7-7-7-| 
A-|-5-5-5-5--5-5-5-5--2-2-2-2--2-2-2-2--5-5-5-5--7-7-7-7-| 
E-|-------------------------------------3-3-3-3--5-5-5-5-|

e-|------------------|
B-|------------------|
G-|-7-7-7-7--7-7-7-7-| 
D-|-7-7-7-7--7-7-7-7-| 
A-|-5-5-5-5--5-5-5-5-| repeat
E-|------------------|


interlude (I talk to myself...)

    B       G       B       G   A

e-|---------------3----------------|
B-|---------------x----------------|
G-|-4-------------x-4--------------| 
D-|-4-------5-5---5-4-------5---7--| 
A-|-2-------5-5---5-2-------5---7--| 
E-|---------3-3-3-3---------3---5--|


Chorus


e-|---------------------------------------|
B-|---------------------------------------|
G-|-7-7-7-7-7-----------------------------| 
D-|-7-7-7-7-7-7-7-7-7-7-9-9-9-9-9-9-9-9-9-| 
A-|-5-5-5-5-5-7-7-7-7-7-9-9-9-9-9-9-9-9-9-| 
E-|-----------5-5-5-5-7-7-7-7-7-7-7-7-7-7-|


e-|-----------------------------------------|
B-|-----------------------------------------|
G-|-7-7-7-7-7-------------------------------| 
D-|-7-7-7-7-7-7-7-7-7-7-5-------------------| repeat but change the
A-|-5-5-5-5-5-7-7-7-7-7-5-------------------| the last G for a D
E-|-----------5-5-5-5-5-3-3-3-3-3-3-3-3-3-3-| than go to 2nd verse.


       ...I need a rest right now, from myself and everyone

e-|-------------------------------------------------------|
B-|-------------------------------------------------------|
G-|-7-----------------------------------------------------| 
D-|-7-7-5----------7--------------5----------------7------| 
A-|-5-7-5----------7--------------5----------------7------| 
E-|---5-3-3-3-3-3--5-5-5-5-5-5-5--3-3-3-3-3-3-3----5-5-5--|


    I got to focus my mind on you

e-|------------------------------|
B-|------------------------------|
G-|------------------------------| 
D-|-5-------------------------7--| 
A-|-5-------------------------7--| 2nd guitar on solo goes
E-|-3-3-3-3-3-3-3-3-3-3-3-----5--| like this: D A B G D A G G


I'll tab the solo soon...
Página 1 / 1

Letras e título
Acordes e artista

resetar configurações
OK