Cifra Club

Aprenda

Penguins and Polar Bears

Millencolin

Cifra: Principal (violão e guitarra)
Tom: D

INTRO

Guitar 2:
  |
e-|----------------------------------------------------------| 2x sem guitar 2
B-|----------------------------------------------------------|
G-|---11-11-11-11-11-11-11---12-12-14-12-12--12-12-12-12-----|
D-|----9--9--9--9--9--9--9---12-12-12-12-12--12-14-12-12-----|
A-|----------------------------------------------------------|
E-|----------------------------------------------------------|
  |                                                          | 
Guitar 1:                                           | Repete intro 5x
  |                                                          |
e-|----------------------------------------------------------|
B-|----------------------------------------------------------|
G-|----------------------------------------------------------|
D-|----9--9--9----4--4---4--5---5---5---5---5---7/5----------|
A-|----9--9--9----4--4---4--5---5---5---5---5---7/5----------|
E-|----7--7--7----2--2---2--3---3---3---3---3---5/3----------|


Guitar 2:
  |
e-|----------------------------------------|
B-|----------------------------------------|
G-|--11-11-1114----14-14-14-14-14-14-14---|
D-|---9--9--912-12-12-12-12-12-12-12-12---|
A-|----------------------------------------|
E-|----------------------------------------|
  |                                        |
Guitar 1:
  |                                        |
e-|----------------------------------------|
B-|----------------------------------------|
G-|--------------7-------------------------|
D-|--4--4--4-4---7--7--7--7--7--7--7--7----|
A-|--4--4--4-4---5--7--7--7--7--7--7--7----|
E-|--2--2--2-2------5--5--5--5--5--5--5----|



:VERSES:

Guitar 1 (palm muted):

e-|----------------------------------|
B-|----------------------------------|
G-|----------------------------------| 4
D-|----------------------------------| X
A-|--9-9-9---4-4-4---5-5-5---7-7-7---|
E-|--7-7-7---2-2-2---3-3-3---5-5-5---|


(Intro 2x)


:CHORUS:

Guitar 1:
  |  D          A            B            G
e-|-----------------------------------------------------|
B-|-----------------------------------------------------|
G-|--7-7-7-7-7------------------------------------------|
D-|--7-7-7-7-7--7-7-7-7-7-7--9-9-9-9-9-9--5-5-5-5-5-5---|
A-|--5-5-5-5-5--7-7-7-7-7-7--9-9-9-9-9-9--5-5-5-5-5-5---|
E-|-------------5-5-5-5-5-5--7-7-7-7-7-7--3-3-3-3-3-3---|
  |                                                     |
Guitar 2:
  |                                                     |
e-|--5-5-5--3-3-3-3-3--5-5-5--3-3-3-3-3-----------------| 
B-|--3-3-3--3-3-3-3-3--3-3-3--3-3-3-3-3-----------------|
G-|-----------------------------------------------------|
D-|-----------------------------------------------------|
A-|-----------------------------------------------------|
E-|-----------------------------------------------------|




Guitar 1 (muted):

e-|--------------------------------------------|
B-|--------------------------------------------|
G-|--4-4-4-4-----7-7-7-7-----------------------|
D-|--4-4-4-4-----7-7-7-7-----5--5-5-5--5-5-5---|
A-|--2-2-2-2-----5-5-5-5-----5--5-5-5--5-5-5---|
E-|--------------------------3--3-3-3--3-3-3---|
   I know we're thinking the same....
   and our    opponent's  the one to blame....


Guitar 1:

e-|---------------------------------------------------------------------------|
B-|---------------------------------------------------------------------------|
G-|--9--9--9--9--9--9--9--9--9--9--9--9--9--9----12--12--12--12--12--12--12---|(12x cada chord)
D-|--9--9--9--9--9--9--9--9--9--9--9--9--9--9----12--12--12--12--12--12--12---|
A-|--7--7--7--7--7--7--7--7--7--7--7--7--7--7----10--10--10--10--10--10--10---|
E-|---------------------------------------------------------------------------|
  thinkin' this way is not something that we both longed for...               |
  |                                                                           |
Guitar 2 (background riff):                                                   |
  |                                                                           |
e-|--5--5--5--5--5--5--5--5--5--5--5--5--5--5----5--5--5--5--5--5--5--5-------|
B-|--5--5--5--5--5--5--5--5--5--5--5--5--5--5----3--3--3--3--3--3--3--3-------|
G-|---------------------------------------------------------------------------|
D-|---------------------------------------------------------------------------|
A-|---------------------------------------------------------------------------|
E-|---------------------------------------------------------------------------|


Guitar 1:

e-|---------------------------------------------------------------------------|
B-|---------------------------------------------------------------------------|
G-|--9--9--9--9--9--9--9--9--9--9--9--9--9--9----12--12--12--12--12--12--12---|(12x cada chord)
D-|--9--9--9--9--9--9--9--9--9--9--9--9--9--9----12--12--12--12--12--12--12---|
A-|--7--7--7--7--7--7--7--7--7--7--7--7--7--7----10--10--10--10--10--10--10---|
E-|---------------------------------------------------------------------------|
  living this way is not something we never did plan but i don't think that we'll.. |
  |                                                                                 |
Guitar 2:                                                         |
  |                                                                                 |
e-|--5--5--5--5--5--5--5--5--5--5--5--5--5--5----5---5---5---5---5---5---5---5------|
B-|--5--5--5--5--5--5--5--5--5--5--5--5--5--5----3---3---3---3---3---3---3---3------|
G-|---------------------------------------------------------------------------------|
D-|---------------------------------------------------------------------------------|
A-|---------------------------------------------------------------------------------|
E-|---------------------------------------------------------------------------------|


Guitar 1:

e-|---------------------------------------------------------------------|
B-|---------------------------------------------------------------------|
G-|---------------------------------------------------------------------|
D-|--7-7-7-7-7----------------------------------------------------------|
A-|--7-7-7-7-7-(continua...)--------------------------------------------|
E-|--5-5-5-5-5----------------------------------------------------------|
  |  chaaaange..........cuz we're stuck in roles as others anti-poles...|
  |                                                                     |
Guitar 2:                                             |

e-|--5-5-5-5-5-5-5-5-5-5-5-5----7-7-7-7-7-7-7-7-79-9-9-9-9-9-----------|
B-|--5-5-5-5-5-5-5-5-5-5-5-5----5-5-5-5-5-5-5-5-57-7-7-7-7-7-----------|
G-|---------------------------------------------------------------------|
D-|---------------------------------------------------------------------|
A-|---------------------------------------------------------------------|
E-|---------------------------------------------------------------------|


*Repete chorus*
*Repete intro nessa parte da letra: "it's not the end for, no it's not the end for me*
23.660 exibições
    • ½ Tom
    • A
    • Bb
    • B
    • C
    • Db
    • D
    • Eb
    • E
    • F
    • F#
    • G
    • Ab
  • Adicionar à lista

    0 comentários

    Mostrar mais comentários

    Conseguiu tocar?

    0 Tocaram 0 Ainda não

    Grave um vídeo tocando Penguins and Polar Bears e mande pra gente!

    00:00 / 00:00
    outros vídeos desta música
    repetir qualidade Automático
    Outros vídeos desta música
    00:00 / 00:00
    Automático

    Cifra Club Pro

    Aproveite o Cifra Club com benefícios exclusivos e sem anúncios
    7 dias grátis
    Cifra Club Pro
    Aproveite o Cifra Club com benefícios exclusivos e sem anúncios
    7 dias grátis
    OK