Dicks Are For My Friends

Mindless Self Indulgence

tom: E Afinação: E A D G B E
E|---------|
B|---------|
G|---------|
D|---------|
A|-4-7-9-7-|
E|-2-5-7-5-|

pre chorus

E|----------|
B|----------|
G|----------|
D|----------|
A|-4-6-7-9--|
E|-2-4-5-7--|

Chorus

E|----------|
B|----------|
G|----------|
D|----------|
A|-5-5------|
E|-3-2------|
Página 1 / 1

Letras e título
Acordes e artista

resetar configurações
OK