Notificações Amigos pendentes

      Ministério Além do Véu

      Terra Fértil

      101.730 exibições
      Tom: B
      Intro guitarra:   
      
        B9        F#     E9                       B9         F#     E9
      E|--------------------------------------------------|------------------------------------~9-|
      B|-------2-----------------------------------------|-------2--------------------------------|
      G|--2/4-----4-3---3h4----------4-------4-----|--2/4-----4-3---3h4----------4----------------|
      D|--2/4---------4------2/4-4-6---4-6-6-------|--2/4---------4------2/4-4-6------------------|
      A|--------------------------------------------------|---------------------------------------|
      E|---------------------0---------0----------------|---------------------0-------------------|
      
      
      Interlúdio:
      
         B9                F#  E9  B9                F#  E
      E|-----------------------------------|---------------------|
      B|-9/12-12\11-11\7-7\4-4/7-|-9/12-12\11-11\7-7\4-7/9-------|
      G|-----------------------------------|---------------------| (2x)
      D|-6/9-----9\8----8\4-4\1-1/4-|-6/9-----9\8----8\4-4\1-4/6-|
      A|-----------------------------------|---------------------|     
      E|-----------------------------------|---------------------|
      
      
                    E                 B
      Eu quero entrar, nos átrios do pai
                  F#              G#m
      E regozijar me em Tua presença
                       E           B
      E ali me prostrarei com toda reverência
            F#                      E
      E entregarei minha humilde oferta
          F#                         E            F#
      Meu coração minha vida, meu ser, te entregarei
      
      
      E|-----------------|
      B|-----------------|
      G|-3h4-3-----------|
      D|----------4-4/6--|
      A|-----------------|
      E|-----------------|
      
      
      G#m                E          B
      Colher o que há de bom em Tua palavra
           F#                   G#m7
      E descansar em Teus braços de amor
               E                      B
      Quero Teu arado, preparando minha vida
                  F#                       E
      Revolva com vontade o mais profundo de mim
             F#                  E9             F#4    F#
      Tire as pedras e os espinhos, terra fértil quero ser
      
      B                        F#/A#            G#m7
      Pra Teu louvor,           faz me Senhor
                              E9
      Eu quero ser usado sem medida
      B              F#/A#                 G#m7
      Prepara me Senhor, capacita me Senhor
                     E
      Te entrego a direção da minha vida
      
      (Interlúdio)
      
      G#m7              E             B
      Colher o que há de bom em Tua palavra
            F#                  G#m7
      E descansar em Teus braços de amor
                E                      B
      Quero Teu arado, preparando minha vida
                  F#                     G#m
      Revolva com vontade o mais profundo de mim
            F#         E9                          F#4
      Tire as pedras e os espinhos, terra fértil quero ser
      
      (Refrão 2x)
      
      (Interlúdio) 
      
      F#                E9
      Sou tão dependente desse Teu amor
      F#                   E9
      Uma pequena gota, em Teu grande mar
      G#m7         E
      Move as Tuas àguas, enche-me de Ti
         B                  F#
      Eu quero Senhor Transbordar
      
      (Pausa e sobe meio tom)
      
      C                        G/B            Am7
      Pra Teu louvor,           faz me Senhor
                              F9
      Eu quero ser usado sem medida
      C              G/B                 Am7
      Prepara me Senhor, capacita me Senhor
                     F
      Te entrego a direção da minha vida
        Composição: AbílioColaboração e revisão:
        • jmb7
        • GeO.o
        • alex_willian
        • Rodrigo
        • Thata
        • +1

        Comentários 1

        140 .
        • adriano1 adriano1: Em 28/07/2012 23:03

          muito legal essa musica ,tem como vcs do cifra club colocar a tablatura!!!

        140 cancelar

        conseguiu tocar?

        covers

        Grave um vídeo tocando Terra Fértil e mande pra gente!

        Ex.: http://www.youtube.com/watch?v=0IvSvIwGdwk
        ver covers de outras músicas »
        0:00 / 0:00

        Capítulos

          1 versão de violão dificuldade exibições contribuição e correção
          1 versão de guitarra dificuldade exibições contribuição e correção
          1 versão de cavaco dificuldade exibições contribuição e correção
          1 versão de teclado dificuldade exibições contribuição e correção
          play/pausefechar subir/descer velocidade
          6ª corda E5ª corda A4ª corda D3ª corda G2ª corda B1ª corda E
            acordes
            publicidade
            fechar
            ok