Cifra Club

O Viver É Cristo

Ministério Cristo Vivo

Cifra: Principal (violão e guitarra)
tom: D
[Intro] D  A/D  Bm/F#  G  D/F#  A  Bm/F#  G

E|---------------------------------------------------|
B|---------------------------------------------------|
G|---------------------------------------------------|
D|--12\11/12-x-x-12\11/12/14\12\11-11--11\9/11-x-x---|
A|-----------x-x-------------------------------x-x---|
E|--10\9-/10-x-x-10\9| /10/12\10\9---9---9\7/9-x-x---|

E|---------------------------------------------------|
B|---------------------------------------------------|
G|---------------------------------------------------|
D|--11/9\11--11/12\11\9-9-9--9/11-11-11-12--\-5-5-5-5|
A|---------------------------------------------------|
E|---9/7\9----9/10\-9\7-7-7--7/9---9--9-10--\-3-3-3-3|

E|---------------------------------------------------|
B|---------------------------------------------------|
G|---------------------------------------------------|
D|--5-5-X-X-X----------------------------------------|
A|------X-X-X----------------------------------------|
E|--3-3-X-X-X----------------------------------------|

E|---------------------------------------------------|
B|---------------------------------------------------|
G|---------------------------------------------------|
D|--12\11/12-x-x-12\11/12/14\12\11-11--11\9/11-x-x---|
A|-----------x-x-------------------------------x-x---|
E|--10\9-/10-x-x-10\9| /10/12\10\9---9---9\7/9-x-x---|

E|---------------------------------------------------|
B|---------------------------------------------------|
G|---------------------------------------------------|
D|--11/9\11--11/12\11\9-9-9--9/11-11-11-12--\-5------|
A|---------------------------------------------------|
E|---9/7\9----9/10\-9\7-7-7--7/9---9--9-10--\-3------|

D                A/D
  Ansiando tua presença senhor
Bm               G                            D/F#
  Me afasto do pecado em busca do teu grande amor
                   A                        Bm
  Sigo os teus caminhos permaneço aos teus pés
                     G                      Em
  Em meio às circunstâncias guardarei tua palavra
                    D/F#
  Para nunca me afastar de ti
G                    A                       Em
  E na força do teu braço não pensar em desistir
                     D/F#                   G
  Como a corça que anseia pelas águas eu anseio por ti
         A
  Vivo só pra ti

D              A/D
  Para mim o viver é você
        G                  A 
  Para mim o viver é cristo

[Solo] D  A/D  Bm/F#  G  D/F#  A  Bm/F#  G
00:00 / 00:00
Outros vídeos desta música
Repetir
Outros vídeos desta música
Composição de Guilherme Sobral / Vinícius Zulato
Colaboração e revisão:
  • Carlos
  • marcos
5.562 exibições
    • ½ Tom
    • A
    • Bb
    • B
    • C
    • Db
    • D
    • Eb
    • E
    • F
    • F#
    • G
    • Ab
  • Adicionar à lista

    0 comentários

    Ver todos os comentários
    00:00 / 00:00

    Cifra Club Pro

    Aproveite o Cifra Club com benefícios exclusivos e sem anúncios
    Cifra Club Pro
    Aproveite o Cifra Club com benefícios exclusivos e sem anúncios
    OK