Cifra Club

Pelo Teu Sangue

Ministério Cristo Vivo

Cifra: Principal (violão e guitarra)
tom: E
C#m                  G#m A
  Pelo teu sangue lá na cruz
             F#m        B  C#m
  Através de Ti cordeiro de Deus
          G#m       B  A       F#m
  Tenho obtido eterna redenção

C#m B C#m                 G#m A
          Os grilhões são quebrados
        F#m  B C#m
  E a morte vencida
         G#m     B  A
  Principados derrotados
           F#m        A F#m  B
  E o Teu povo se regozija aaá

         E
  Estou livre do pecado
        C#m
  Estou livre do pecado
        A
  Nada pode me prender
       F#m                   B
  Nada vai me impedir de correr

INSTRUMENTAL: C#m - G#m - A - F#m

MODULAÇÃO:

         F#
  Estou livre do pecado
        D#m
  Estou livre do pecado
        B
  Nada pode me prender
       G#m                  C#
  Nada vai me impedir de correr

FINAL: D#m - C# - D#m



riff do meio da música.

E|-----------------------------|----------------|---------|
B|-----------------------------|----------------|---------|
G|-----------6-------8--6------|----------------|--6--4--6|
D|--9--7--6----9--7-------6~~~~|--7--7-----4----|--6--4--6|
A|-----------------------------|--7--7-----4----|---------|
E|-----------------------------|--5--5-----2----|---------|

Riff do final da música.
E|----------------------|
B|----------------------|
G|----------------------|
D|----------6--4--------|
A|--6--4--6-------4--6~~|
E|----------------------|
00:00 / 00:00
Outros vídeos desta música
Repetir
Outros vídeos desta música
Composição de Heloisa Rosa
Colaboração e revisão:
  • Márcio
  • Gustao
15.286 exibições
    • ½ Tom
    • A
    • Bb
    • B
    • C
    • Db
    • D
    • Eb
    • E
    • F
    • F#
    • G
    • Ab
  • Adicionar à lista

    0 comentários

    Ver todos os comentários
    00:00 / 00:00

    Cifra Club Pro

    Aproveite o Cifra Club com benefícios exclusivos e sem anúncios
    Cifra Club Pro
    Aproveite o Cifra Club com benefícios exclusivos e sem anúncios
    OK