Cifra Club

Maravilhosa Graça

Ministério Ipiranga

Cifra: Principal
exibições 71.345
Tom: F
Intro: D9 G/D D9 Em7/D G/A D9

D9                           D7m
Quando tudo em mim era incerto
                               G   D9 G/A
Os meus olhos já não viam tuas mãos
D9                             D7m
Se hoje eu Não tenho o que espero
                         GM7
Aprendi a confiar meu coração[ em Ti

               Em7                      D/F#
No Deus que cumpri sua palavra e me guarda
        G                            A4
Mesmo quando penso que é chegado o fim
          Em7                     D/F#
Eu só preciso adorar em meio às dores
         G                       A4
Pois o milagre é um detalhe para ti

         D9
Fui alcançado por tua graça
   C9                  G/B                 Gm/Bb
Maravilhosa graça que trouxe salvação para mim
         D9/F#
Eu não mereço tanta graça
     C9                G/B
Mais por misericórdia recebi
     Bb         C                 D9  ( D9 G/D D9 Em7/D G/A D9 )
O maior milagre Deus já fez em mim

E|------------------------------------------------------------------------15~-------|
B|--/11-11-11-10-10/6-6/10-10-10/6-6~-6-5-------------------------------------------|
G|-------------------------------------------7-5/7-7-7/9~--9-10-10/12~--------------|
D|----------------------------------------------------------------------------------|
A|----------------------------------------------------------------------------------|
E|----------------------------------------------------------------------------------|

E|--/18-18-18-17-17/11-11/17-17-17/11-11~-11-12-------------------------------------|
B|----------------------------------------------15-11-11-15-15/17~17-18-18/20-19-20b|
G|----------------------------------------------------------------------------------|
D|----------------------------------------------------------------------------------|
A|----------------------------------------------------------------------------------|
E|----------------------------------------------------------------------------------|

Intro: Gm Dm Bb9 C/Bb C Gm F/A Bb9 C/Bb A4

         D9
Fui alcançado por tua graça
   C9                  G/B                 Gm/Bb
Maravilhosa graça que trouxe salvação para mim
         D9/F#
Eu não mereço tanta graça
     Am7                A#9 C/Bb
Mais por misericórdia recebi
     C                          D/F#
O maior milagre Deus já fez em mim
     Am                          Bb9 C/Bb
O maior milagre Deus já fez em mim
   C                          D/F#
O maior milagre Deus já fez em mim
    Am                         Bb9 C/Bb
O maior milagre Deus já fez em
    C                           D9
O maior milagre Deus já fez em mim
Acordes para:

    0 comentários

      mostrar mais comentários

      Conseguiu tocar?

      5tocaram0ainda não

      Grave um vídeo tocando Maravilhosa Graça e mande pra gente!

      00:00 / 00:00
      outros vídeos desta música
      repetirqualidadeautomática
      Outro vídeos desta música
        00:00 / 00:00
        automática
        OK