Enviar cifraEntrar

Ressuscita

Ministério Ipiranga

Cifra: Principal
exibições 519.179
Tom: G
Intro: D D9 D D9  D4 D D4 D  D D9 D D9 A A4 A D D9 D D9  D4 D D4 D 

                           H.A

E|------------------------------------------|
B|------------------------------------------|
G|-------7-9-9b11---11r9p7--9---------------|
D|---7-9------------------------------------|
A|-9----------------------------------------|
E|------------------------------------------|


E|------------------------------------------|
B|---------7/8--7---------------------------|
G|-7-9-11------------9----------------------|
D|------------------------------------------|
A|------------------------------------------|
E|------------------------------------------|

                 T   T   T

E|------------------------------------------|
B|------10----------------------------------|
G|-7--9----9b11--16--17--19-11r9------------|
D|------------------------------------------|
A|------------------------------------------|
E|------------------------------------------|


E|------------------------------------------|
B|-15-17--17b19-20--17b19--17---------------|
G|------------------------------------------|
D|------------------------------------------|
A|------------------------------------------|
E|------------------------------------------|


E|-------17---------------------------------|
B|-15-17----17b19-19-19r17p15---------------|
G|----------------------------16------------|
D|------------------------------------------|
A|------------------------------------------|
E|------------------------------------------|


E|------------------------------------------|
B|-15-17--17b19-20--17b19--17----15-15/17---|
G|------------------------------------------|
D|------------------------------------------|
A|------------------------------------------|
E|------------------------------------------|


( Em Em A A4 A )

             Bm
O que posso ver,
   A                  D     D4 D
Senão um vale de ossos secos.

Solo da Segunda Parte:

E|------------------------------------------|
B|------------------------------------------|
G|-------7-9/11-7h9-7~----------------------|
D|---7-9---------------7h9~-----------------|
A|------------------------------------------|
E|------------------------------------------|


                Bm
E o que posso dizer,   
    A               D    D4 D
Se já se foi a esperança?   

         Bm             G
Nossa vergonha, está exposta,   
            D            A
Debaixo do sol, Há muito tempo.

            Bm              G                D      A
Se foi a Alegria, não há Espírito, não há Palavra 

         Em                G
Filho do Homem, muda a história, 
        D
Com tua boca...  
      A
Profetiza!!!
         Em              C             Em        A
Volte Alegria, Tenha Espírito, Haja Palavra!!!  

       D
Ressuscita!!!
D              D/C#   Bm
Oh terra que estava morta   
   Bm            Em
Oh Vale de ossos secos...   
Em            A          A
Volte a respirar.... "Eu posso ouvir..."
         D  D9   D       D9   Bm7
Posso ouvir,   o som do avivamento   
   Bm7          Em     Em
A Morte tornando vida...  Ressuscita!!!   

Modulação: Am

E|------------------------------------------|
B|------------------------------------------|
G|------------------------------------------|
D|-------2----------------------------------|
A|---4r5---5/4/5/4--------------------------|
E|-----------------6-5----------------------|


Riff: ( D  G  Em  A  D  G  Em   D )

Dm
Vida...
   Dm        Dm    C    A#
Eu profetizo sobre ti a vida
  A#        A#   A   Gm     A#
Receba sobre ti  a vida
 C       D    D
Vida de Deus!    (2x)

Refrão 2x:
       D
Ressuscita!!!
D              D/C#   Bm
Oh terra que estava morta   
   Bm            Em
Oh Vale de ossos secos...   
Em            A          A
Volte a respirar.... "Eu posso ouvir..."
         D  D9   D       D9   Bm7
Posso ouvir,   o som do avivamento   
   Bm7          Em     Em       A      A
A Morte tornando vida...  Ressuscita!!!
  • 1
  • 2
  • 3
  • 4
  • 5
  • 6
  • 7
  • 8
  • 9
  • 10
  • 11
  • 12

    0 comentários

      mostrar mais comentários

      Conseguiu tocar?

      46tocaram1ainda não

      Grave um vídeo tocando Ressuscita e mande pra gente!

      00:00 / 00:00
      outros vídeos desta música
      repetirqualidadeautomática
      • automática
      Outro vídeos desta música
        00:00 / 00:00
        automática
        • automática
        1 versão de Guitar Proformatodownloadscontribuição
        1 versão de Partiturasformatodownloadscontribuição
        fecharplay/pause subir/descer velocidade
          acordes
          fechar
          OK
          Feedback