Cifra Club

Aprenda

Desenvolvendo Amor

Morada

Tab de baixo: Principal
[Solo]

G|-----------------------------------------------------------------------------------------------------------|
D|-----------------------------------------------------------------------------------------------------------|
A|-5-6-7--7-5-7-5-------------------5-5-7-7---------------------------------7-----5-------7--7-5-7-5---------|
E|-----------------------7-5-7--7-7--------------5-5-3-5-3-5/7-7-7--7--5----3--------------------------7-5-7-|

G|--------------------------------------------------------------|
D|--------------------------------------------------------------|
A|--------5-5-7-7---------------------------------5-5-10-10-----|
E|-7-7---------------5--5-3-5--5-3-5--5-3-----------------------|

[Primeira Parte]

Tua palavra é uma semente...

G|-----------------------------------------------------------------|
D|-----------------------------------------------------------------|
A|-7--7-7-7--10----------------5------------------------5-7--------|
E|--------------------7--7-7-7-----3-5-------7--7-7-7--------5\----|

[Refrão]

G|----------------------------------------------------------------------------------------------------------|
D|----------------------------------------------------------------------------------------------------------|
A|-5--5-5-6--6-6--7--7-5-7-5----------------5-5-7-7----------------------------------7----5------7--7-5-7-5-|
E|-----------------------------------7-5-7--7-7-------------5-5-3-5-3-5/7-7-7--7--5----3--------------------|

G|----------------------------------------------|-------------|
D|----------------------------------------------|-------------|
A|---------------5-5-7-7------------------------|-5--6-7------|
E|7-5-7--7-7-------------5--5-3-5--5-3-5--5-3---|-----------0-|

Riff do Baixo
G|----------12-14h16-12-14\----12-11----------------------------------------|
D|-12/14------------------------------------12------12-14-12----------------|
A|-------------------------------------------------14-----------14-10-12-12-|
E|--------------------------------------------------------------------------|

[Segunda Parte] 

Tua palavra é uma semente...

G|-----------------------------------------------------------------------------------------------------------|
D|-----------------------------------------------------------------------------------------------------------|
A|-7--7-7-7--10----------------5----------------12\7-7-/19------7--7-7-7--10----------------5----------------|
E|--------------------7--7-7-7------3-5---------------------------------------------------7--7-7-7-----3-5---|

G|-----------------------|
D|-----------------------|
A|-------------5-7-------|
E|-7--7-7-7--------5\----|

[Refrão]

G|----------------------------------------------------------------------------------------------------------|
D|----------------------------------------------------------------------------------------------------------|
A|-5--5-5-6--6-6--7--7-5-7-5----------------5-5-7-7----------------------------------7----5------7--7-5-7-5-|
E|-----------------------------------7-5-7--7-7-------------5-5-3-5-3-5/7-7-7--7--5----3--------------------|

G|----------------------------------------------|
D|----------------------------------------------|
A|---------------5-5-7-7------------------------|
E|7-5-7--7-7-------------5--5-3-5--5-3-5--5-3---|

[Pré-Rap]

Sim eu serei como a árvore...

G|--------------------------------------------------------------------------------------------------|
D|----------------17-17-14-14----------------------------------------17-17-14-14--------------------|
A|--5/14---12-------------------15-15-12-12-12/14\--2/--12--------------------15-15-12-12-12/14\--3-|
E|--------------------------------------------------------------------------------------------------|

G|--------------------------|
D|-----------5------7-------|
A|3-3-3-5-----7-------------|
E|--------------------------|

[Rap]

E nada me impedira de viver o melhor...

G|-------------------------------------------------------------------------------|
D|----------------------7---------------------------------------------7----------|
A|--7-7-7-7--10-10----9------------------5--7-7-7-7--10-10----9------------------|
E|------------------------------0-3-5-------------------------------------0-3-5--|
 
Já não ouço o que o mal me diz...

G|-------------------12-12-----12--------------------------------------------------------------------------|
D|--14-14-14-14---------14-----------------------12-14----------------------------10-10------------10-10---|
A|-------------------------------------14-14-14-14----------14-12--12-12-12-12----------12-12-----------12-|
E|---------------------------------------------------------------------------------------------------------|

G|--------------------------------------------------------12-12-----12-------------------------------------|
D|-------10-10-----------------------14-14-14-14---------14-----------------------12-14--------------------|
A|12--------------12-10------------------------------------------------14-14-14-14-------------14-12--12-12|
E|---------------------------12----------------------------------------------------------------------------|

G|------------------------------------------------------------------------|
D|------------10-10------------10-10---------------10---------------------|
A|--12--12----------12-12---------------12-12-----------12\---------------|
E|------------------------------------------------------------------------|

[Pós Rap] 

Ninguém amou como Jah nos amou...

G|----------------------------|
D|----------------------------|
A|--------5-2--2--------------|
E|-0-2-3-----------0-3-5------|

G|---------------------------------------------------------------------------|
D|----------------------7------------------------------------------7---------|
A|--7-7-7-7--10-10----9------------------5--7-7-7-7--10-10----9--------------|
E|------------------------------0-3-5---------------------------------0-3-5--|

[Refrão Final]

G|----------------------------------------------------------------------------------------------------------|
D|----------------------------------------------------------------------------------------------------------|
A|-5--5-5-6--6-6--7--7-5-7-5----------------5-5-7-7----------------------------------7----5------7--7-5-7-5-|
E|-----------------------------------7-5-7--7-7-------------5-5-3-5-3-5/7-7-7--7--5----3--------------------|

G|----------------------------------------------|-------------------|
D|----------------------------------------------|-------------/14---|
A|---------------5-5-7-7------------------------|--5-6-7------------|
E|7-5-7--7-7-------------5--5-3-5--5-3-5--5-3---|-------------------|
Composição de Marcos Neres Vasconcelos
Colaboração e revisão:
  • Leandro Rodrigues
3.465 exibições

0 comentários

Ver todos os comentários

Conseguiu tocar?

6 Tocaram 2 Ainda não

Grave um vídeo tocando Desenvolvendo Amor e nos envie!

00:00 / 00:00
Outros vídeos desta música
Repetir Qualidade Automático
Outros vídeos desta música
00:00 / 00:00
Automático

Cifra Club Pro

Aproveite o Cifra Club com benefícios exclusivos e sem anúncios
Cifra Club Pro
Aproveite o Cifra Club com benefícios exclusivos e sem anúncios
OK