Cifra Club

Aprenda

Desenvolvendo Amor

Morada

Tab de baixo: Versão 2
  1º Parte e Refrão (Junto ao solo da guitarra)e(Eu vou crescendo)
G|-------------------------------------------------------|-----------|
D|-------------------------------------------------------|-----------|
A|-5-6-7--7-5-7-5--------5-5-7-7-----------------5-5-7-7-|-5-6-7-----|
E|----------------7-5-7----------5-5-3-5-3-5-5/7---------|--------0--|

  1º Estrofe (Tua palavra é uma semente...)
G|---------------------------------------------|------|
D|---------5-----------------------------------|------|
A|-7-7-7-7-----------5----------------5--------|-5-6--|
E|-----------7-7-7-7---3-5----7-7-7-7---3-5/0--|------|


  1º solo (Depois do primeiro refrão)
G|----------------------------------------|
D|-----5--7/9-7--5-4----------------------|
A|-5-7---------------5----5-7-5-----------|
E|---------------------7---------7-3-5-5--|

  Pré-Rap (Sim eu serei como a árvore...)
G|-----------------------------|---------------------|
D|---------5-5-----------------|--3-3-3-3------------|
A|-------------7-7-------------|----------5-5-5-5-7--|
E|-7--5------------8-8—5-5--7--|---------------------|

  Rap (E nada me impedira de viver o melhor...)
G|-------------------------|
D|----------5-5-7-4--------|
A|--7-7-7-7----------------|
E|------------------0-3-5--|
 
 Voz e Baixo (Já não ouço o que o mal me diz...)
G|-------------------------------------------------------------------------|
D|--------------5-5--5-----------------------------------------------------|
A|--7-7-7-7-7-7----7-------------5-7-5------------3-3-----3-3-----3--------|
E|----------------------7-7-7-7--------5--5-5-5-5-----5-5-----5-5---5-3-0--|

  Pós Rap (Ninguém amou como Jah nos amou...)
G|------------------------|
D|------------------------|
A|--------5-2--2----------|
E|-0-2-3-----------0-3-5--|
Composição de Marcos Neres Vasconcelos
Colaboração e revisão:
  • Leandro Rodrigues
716 exibições

0 comentários

Ver todos os comentários

Conseguiu tocar?

3 Tocaram 0 Ainda não

Grave um vídeo tocando Desenvolvendo Amor e nos envie!

00:00 / 00:00
Outros vídeos desta música
Repetir Qualidade Automático
Outros vídeos desta música
00:00 / 00:00
Automático

Cifra Club Pro

Aproveite o Cifra Club com benefícios exclusivos e sem anúncios
Cifra Club Pro
Aproveite o Cifra Club com benefícios exclusivos e sem anúncios
OK