Cifra Club

Do Alto da Pedra

Ministério Nova Luz

Cifra: Principal (violão e guitarra)
tom: E
Do Alto da Pedra



E

  C#9                    A9           C#9                    A9
E|----------------------|------------|----------------------|----------------|
B|-------4-----4h5p4----|-------0----|-------4-----4h5p4----|-------0------0-|
G|-----6---6---------6--|-----2---2--|-----6---6---------6--|-----2---2---2--|
D|---6-------6---------6|---2-------2|---6-------6---------6|---2--------2---|
A|-4--------------------|-0----------|-4--------------------|-0---------0----|
e|----------------------|------------|----------------------|----------------|

 ( B5  C#5  A5 ) 2 Vezes

E                 A9                   C#9
ENCONTRO E SINTO, VOCÊ É TUDO QUE  SONHEI
                    A9                           E
NÃO POSSO ME CONTER, BEM MAIS QUE TUDO EU QUERO IR
                       A9                        C#9
UMA VEZ QUE FAZ-ME SENTIR ALGUÉM É PRA TODO SEMPRE
                   A9        B4          E/G#   E/A   E/G#   E/A 
NÃO QUERO MINHA VIDA IGUAL A TUDO QUE SE VÊ

E5                           A5
EM VOCÊ EU SEI ME SINTO FORTE
COM VOCÊ NÃO TEMO MINHA SORTE
C#5          A5              E     F#5   D5
E EU SEI QUE ISSO VEIO DE VOCÊ


E5                           A5
EM VOCÊ EU SEI ME SINTO FORTE
COM VOCÊ NÃO TEMO MINHA SORTE
C#5          A5              E     F#5   D5
E EU SEI QUE ISSO VEIO DE VOCÊ

E               A9                        C#9
DO ALTO DA PEDRA EU BUSCO IMPULSO PRA SALTAR
                    A9                                                      
MAIS ALTO QUE ANTES , E MAIS QUE  TUDO EU QUERO IR
E                      A9                        C#9                         
UMA VEZ QUE FAZ-ME SENTIR ALGUÉM É PRA TODO SEMPRE
                    A9        B4         E/G#    E/A    E/G#    E/A
NÃO QUERO MINHA VIDA IGUAL A TUDO QUE SE VÊ

E5                           A5
EM VOCÊ EU SEI ME SINTO FORTE
COM VOCÊ NÃO TEMO MINHA SORTE
C#5          A5              E     F#5   D5
E EU SEI QUE ISSO VEIO DE VOCÊ

E5                           A5
EM VOCÊ EU SEI ME SINTO FORTE
COM VOCÊ NÃO TEMO MINHA SORTE
C#5          A5              E     F#5   D5      A5
E EU SEI QUE ISSO VEIO DE VOCÊ             DE VOCÊ

OBS.: COLOQUEI NO FINAL DO SOLO DOIS MODOS DE FAZÊ-LO, EU PARTICULARMENTE
      FAÇO O PRIMEIRO QUE É EM "DOUBLES STOPS" MODO 01, PORÉM O ORIGINAL
      DA MUSICA É O MODO 02, AÍ VAI DE SUA ESCOLHA.

TRANSCRIÇÃO: LEANDRO PIRES
b = BEND
r = RELEASE
h = HAMMER-ON
p = PULL-OFF
/ = SLIDE
~ = VIBRATO
^ = HARMÔNICO ARTIFICIAL (só pra lembrar, o harmônico se faz soltando de
                         leve o dedo no traste a frente da casa indicada)

   E5                A5                 C#5  A5            E5 F#5 D5 E5
E|-14b16-14b16r14p12-14------------------9-9-14-12-11-12-------------19^-----|
B|----------------------12b14r12------9-12---------------14-12~~~~------17-16|
G|-------------------------------9/11----------------------------------------|
D|---------------------------------------------------------------------------|
A|---------------------------------------------------------------------------|
e|---------------------------------------------------------------------------|

                                     A5                        C#5
E|-------------19^-------------------19^-----------------------11----11------|
B|-17-16-17--------17-16-17-16-17-16-----17-16-17-16-----------14b16-14b16---|
G|---------------------------------------------------16-18~~~~---------------|
D|---------------------------------------------------------------------------|
A|---------------------------------------------------------------------------|
e|---------------------------------------------------------------------------|

   C#5               A5          E5             F#5         D5         E5
E|-11----11----11----11----------14b16r14-12-11-14p12p11h12h14p12p11/9-------|
B|-14b16-14b16-14b16-14b16r14p12---------------------------------------9-----|
G|---------------------------------------------------------------------------|
D|---------------------------------------------------------------------------|
A|---------------------------------------------------------------------------|
e|---------------------------------------------------------------------------|

Modo 01 (mais massa)
   A5                                                         E5
E|-11----12----14-----------------------------------------------|
B|-14b16-15b17-17b19-17-16-17-----------------------------------|
G|----------------------------7----9-----10----12-12b14r12-10-12|
D|----------------------------9b11-11b13-12b14------------------|
A|--------------------------------------------------------------|
e|--------------------------------------------------------------|

Modo 02 (mais fácil, original da musica)
   A5                                      E5
E|-11-12-14-12-11-12-------------------------|
B|------------------/7-9-10-12-12b14r12-10-12|
G|-------------------------------------------|
D|-------------------------------------------|
A|-------------------------------------------|
e|-------------------------------------------|

E5                           A5
EM VOCÊ EU SEI ME SINTO FORTE
COM VOCÊ NÃO TEMO MINHA SORTE
C#5          A5              E     F#5   D5
E EU SEI QUE ISSO VEIO DE VOCÊ

E5                           A5
EM VOCÊ EU SEI ME SINTO FORTE
COM VOCÊ NÃO TEMO MINHA SORTE
C#5          A5              E     F#5   D5      A5
E EU SEI QUE ISSO VEIO DE VOCÊ             DE VOCÊ

( B5  C#5  A5 ) 2 Vezes
00:00 / 00:00
Outros vídeos desta música
Repetir
Outros vídeos desta música
Composição de Thulio melo
Colaboração e revisão:
  • Thulio melo
3.625 exibições
    • ½ Tom
    • A
    • Bb
    • B
    • C
    • Db
    • D
    • Eb
    • E
    • F
    • F#
    • G
    • Ab
  • Adicionar à lista

    0 comentários

    Ver todos os comentários

    Conseguiu tocar?

    0 Tocaram 0 Ainda não

    Grave um vídeo tocando Do Alto da Pedra e nos envie!

    Entre para oCifra Club PRO

    Tenha acesso a benefícios exclusivos no App e no Site

    • Chega de anúncios

    • Prioridade de compra em lançamentos

    • Mais recursos no app do Afinador

    • Atendimento Prioritário

    • Descontos nos produtos Cifra Club

    • Ajude a produzir mais conteúdo

    00:00 / 00:00

    Cifra Club Pro

    Aproveite o Cifra Club com benefícios exclusivos e sem anúncios
    Cifra Club Pro
    Aproveite o Cifra Club com benefícios exclusivos e sem anúncios
    OK