Cifra Club

Aprenda

Tua Presença Me Faz Livre

Ministério SPA

Cifra: Principal (violão e guitarra)
tom: A
[Intro] Bb  Cm  Dm  Eb  
        Gm  F  Gm  F  Eb

E|-----------------------------------|
B|-11-11-10-10-11/15-15-15-16-15-----|
G|-10-10-10-10-10/15-15-15-15-15-----|
D|-----------------------------------|
A|-----------------------------------|
E|-----------------------------------|

E|---15--15--15--15--13--13--11--11-8-8-8-8-6-6-5-5---|
B|-11--11--11--11--11--11--11--11--6-6-6-6-6-6-6-6----|
G|----------------------------------------------------| 
D|----------------------------------------------------|  
A|----------------------------------------------------|
E|----------------------------------------------------|

E|---15--15--15--15--13--13--11--11-8-8-8-8-6-6-5-5-6--|
B|-11--11--11--11--11--11--11--11--6-6-6-6-6-6-6-6-----|
G|-----------------------------------------------------|
D|-----------------------------------------------------| 
A|-----------------------------------------------------|
E|-----------------------------------------------------|

 Bb       F           Gm    Eb         Bb
  Tua presença me faz cantar a Ti meu Senhor
          F         Eb
O Teu Espírito me enche de amor
Bb          F     Gm       Eb           Bb
  A Tua destra é fiel, jamais me esquecerei
           F           Eb
De tudo aquilo que fizeste a mim
     Bb     F           Gm   Eb
Verdadeiramente eu sou livre
        Cm  Gm     F
Teu sangue me comprou

( Bb  Cm  Dm Eb )
( Bb  Eb  Gm  F )  
( Bb  Eb  Gm  F )  

[Refrão]

Bb                                  Eb
Tua presença, Tua presença me faz cantar!
Bb                                    Eb
Tua presença, Tua presença me faz dançar!
Bb                                    Eb
Tua presença, Tua presença me faz pular!

[Final] Bb  Cm  Dm  Eb 
        Bb  Cm  Dm  Eb  Dm
Compositor não encontrado.
Colaboração e revisão:
13.148 exibições
    • ½ Tom
    • A
    • Bb
    • B
    • C
    • Db
    • D
    • Eb
    • E
    • F
    • F#
    • G
    • Ab
  • Adicionar à lista

    0 comentários

    Ver todos os comentários
    00:00 / 00:00
    Outros vídeos desta música
    Repetir Qualidade Automático
    Outros vídeos desta música
    00:00 / 00:00
    Automático

    Cifra Club Pro

    Aproveite o Cifra Club com benefícios exclusivos e sem anúncios
    Cifra Club Pro
    Aproveite o Cifra Club com benefícios exclusivos e sem anúncios
    OK