Bullet

Misfits

Composição de: Danzig / Glenn Danzig
tom: F
|------------------------------------------------------------|
|------------------------------------------------------------|
|-7-7-7-7-7-7-7-7-7-7-7-7-7-7--5-5--10-10--7-----------------|
|-7-7-7-7-7-7-7-7-7-7-7-7-7-7--5-5--10-10--7-----------------|
|-5-5-5-5-5-5-5-5-5-5-5-5-5-5--3-3---8--8--5-----------------|
|------------------------------------------------------------|  x3 (three times)

|------------------------------------------------------------|
|------------------------------------------------------------|
|-7-7-7-7-7-7-7-7-7-7-7-7-7-7---5-5-5-5-5-5-5-5-5-5-5-5-5-5--|
|-7-7-7-7-7-7-7-7-7-7-7-7-7-7---5-5-5-5-5-5-5-5-5-5-5-5-5-5--|
|-5-5-5-5-5-5-5-5-5-5-5-5-5-5---3-3-3-3-3-3-3-3-3-3-3-3-3-3--|
|------------------------------------------------------------|

|------------------------------------------------------------|
|------------------------------------------------------------|
|-3-3-3-3-3-3-3-3--5-5-5-5-5-5-5-5--7-7-7-7-7-7-7-7-7-7-7-7--|
|-3-3-3-3-3-3-3-3--5-5-5-5-5-5-5-5--7-7-7-7-7-7-7-7-7-7-7-7--|
|-1-1-1-1-1-1-1-1--3-3-3-3-3-3-3-3--5-5-5-5-5-5-5-5-5-5-5-5--|
|------------------------------------------------------------|  x1 (one time)

|------------------------------------------------------------|
|------------------------------------------------------------|
|-7-7-7-7-7-7-7-7-7-7-7-7-7-7--5-5--10-10--7-----------------|
|-5-5-5-5-5-5-5-5-5-5-5-5-5-5--5-5--10-10--7-----------------|
|-5-5-5-5-5-5-5-5-5-5-5-5-5-5--3-3---8--8--5-----------------|
|------------------------------------------------------------|  x2 (two times)

|------------------------------------------------------------|
|------------------------------------------------------------|
|-7-7-7-7-7-7-7-7-7-7-7-7-7-7---5-5-5-5-5-5-5-5-5-5-5-5-5-5--|
|-5-5-5-5-5-5-5-5-5-5-5-5-5-5---5-5-5-5-5-5-5-5-5-5-5-5-5-5--|
|-5-5-5-5-5-5-5-5-5-5-5-5-5-5---3-3-3-3-3-3-3-3-3-3-3-3-3-3--|
|------------------------------------------------------------|

|------------------------------------------------------------|
|------------------------------------------------------------|
|-3-3-3-3-3-3-3-3--5-5-5-5-5-5-5-5--7-7-7-7-7-7-7-7-7-7-7-7--|
|-3-3-3-3-3-3-3-3--5-5-5-5-5-5-5-5--7-7-7-7-7-7-7-7-7-7-7-7--|
|-1-1-1-1-1-1-1-1--3-3-3-3-3-3-3-3--5-5-5-5-5-5-5-5-5-5-5-5--|
|------------------------------------------------------------|  x1 (one time)

|------------------------------------------------------------|
|------------------------------------------------------------|
|-12-12-12-12-12-12-12-12--7-7-7-7-7-7-7-7-7-7-7-7-----------|
|-12-12-12-12-12-12-12-12--7-7-7-7-7-7-7-7-7-7-7-7-----------|
|-10-10-10-10-10-10-10-10--5-5-5-5-5-5-5-5-5-5-5-5-----------|
|------------------------------------------------------------|  x17 (seventeen times)

|------------------------------------------------------------|
|------------------------------------------------------------|
|--5-5--10-10--7----5-5--10-10--7----5-5--10-10--7-7-5-7-----|
|--5-5--10-10--7----5-5--10-10--7----5-5--10-10--7-7-5-7-----|
|--3-3---8--8--5----3-3---8--8--5----3-3--10-10--5-5-3-5-----|
|------------------------------------------------------------|  x1 (one time)

Página 1 / 1

Letras e título
Acordes e artista

resetar configurações
OK