Descending Angel Solo

Misfits

Composição de: Daniel Rey / Misfits
tom: Bb (forma dos acordes no tom de B ) Afinação: Eb Ab Db Gb Bb Eb
E|--------------------------------------------------------------------------
A|--------------------------------------------------------------------------
D|--------------------------------------------------------------------------
G|4/9@-11-12@-12-11--12-11----9-11-11-11-11-12/14/17/14/17/14/17/14/17/14/17
B|-----------------12-----12-9----------------------------------------------
E|----------------------???????---------------------------------------------

E|--------------------------------------------------------------------------
A|--------------------------------------------------------------------------
D|-------------------------------------------------2-1-2-1---4-3-4-3-4------
G|-16/9-8-9-8-9-8-9-8-7-6-7-6-7-6-7-6-5-4-0-5-4-0-2---2---2-4---4---4----9--
B|-------9---9---9---9---7---7---7---7-----------------------------------9--
E|--------------------------------------------------------------------19/7--

Página 1 / 1

Letras e título
Acordes e artista

resetar configurações
OK