Cifra Club

Aprenda

London Dungeon

Misfits

Tab de baixo: Versão 2
Já pensou em usar uma coleção de roupas do Cifra Club? Responda as perguntas abaixo e nos ajude nessa missão! →
Brennan Williams Tabs
Originaly from Jerry Only

Intro
----------------------------------------|
----------------------------------------|  X8
----------------------------------------|
------00000000-5555-333-22--------------|

Verse#1
----------------------------------------|
----------------------------------------| X10
----------------------------------------|
------00000000-5555-333-22--------------|

Chorus
----------------------------------------|
----------------------------------------| X2
----------------------------------------|
-----001-001-003-003-00000000000000-----|

----------------------------------------|
----------------------------------------| X1
----------------------------------------|
-----001-001-001-001-003-003-003-003----|

Verse#2
----------------------------------------|
----------------------------------------| X2
----------------------------------------|
---------0---7---3---5---3---2----------|

----------------------------------------|
----------------------------------------| X4
----------------------------------------|
------00000000-5555-333-22--------------|

Chorus
----------------------------------------|
----------------------------------------| X2
----------------------------------------|
-----001-001-003-003-00000000000000-----|

----------------------------------------|
----------------------------------------| X1
----------------------------------------|
-----001-001-001-001-003-003-003-003----|

Verse#3
----------------------------------------|
----------------------------------------| X6
----------------------------------------|
------00000000-5555-333-22--------------|

Chorus
----------------------------------------|
----------------------------------------| X2
----------------------------------------|
-----001-001-003-003-00000000000000-----|

----------------------------------------|
----------------------------------------| X1
----------------------------------------|
-----001-001-001-001-003-003-003-003----|

Outro

----------------------------------------|
----------------------------------------| X5
----------------------------------------|
---------0---7---3---5---3---2----------|
Composição de Glenn Danzig
137 exibições

0 comentários

Ver todos os comentários

Conseguiu tocar?

0 Tocaram 0 Ainda não

Grave um vídeo tocando London Dungeon e nos envie!

00:00 / 00:00
Outros vídeos desta música
Repetir Qualidade Automático
Outros vídeos desta música
00:00 / 00:00
Automático

Cifra Club Pro

Aproveite o Cifra Club com benefícios exclusivos e sem anúncios
Cifra Club Pro
Aproveite o Cifra Club com benefícios exclusivos e sem anúncios
OK