Lost In Space

Misfits

Composição de: Misfits
tabbed by: ryan b

Flatten only the E string...

Riff A: (once)
A---7-6-4--------
Eb--------8-7-5--

Riff B: (3 times)
A--------------------------------------------
Eb--3-33-33--3-33-33--6-66-66--1---1-1--1-1--

Riff C: (once)
A---------------------7-6-4--------
Eb--3-33-33--3-33-33--------8-7-5--

Riff B: (4 times)

Riff D: (once)
A----------------------------------------------
Eb--1---1-1--1-1---1---1-1--1-1---1---1-1-1-1--

Riff B: (3 times)
Riff D: (once)

Riff E: (3 times)
A---5-55-55--0-00-00-----------0-00-00--
Eb--------------------3-33-33-----------

Riff F: (once)
A---5-55-55--0-00-00--
Eb--------------------

Riff B: (3 times)
Riff D: (once)
Riff E: (3 times)
Riff F: (once)

Riff G: (3 times)
A--------------------
Eb--0---0-3-5-6-5-3--

Riff H: (once)
A--------------
Eb--0---0-3-5--

Riff E: (3 times)

Riff I: (once) 
A---5-55-55--0-00-00--------------------
Eb--------------------3-33-33--3-33-33--

Riff E: (3 times)
Riff I: (once)

Riff J: (twice)
A---0--0--0------------
Eb-----------1-1-1--3--

Riff K: (once)
A---0--0--0-----------------------------------------
Eb-----------1-1-1------------3------------------3--

Página 1 / 1

Letras e título
Acordes e artista

resetar configurações
OK