Cifra Club

Once More To See You

Mitski

Tab de baixo: Principal
[Primeira Parte]

[Tab - Primeira Parte]

G|--------------------------------------------------|
D|--------------------------------------------------|
A|--------------------------------------------------|
D|--0---0-0-----0---0-0-----0---0-0-----0---0-0-----|

G|--------------------------------------------------|
D|--------------------------------------------------|
A|--------------------------------------------------|
D|--4---4-4-----8---8-8-----7---7-7-----2---2-2-----|

G|--------------------------------------------------|
D|--------------------------------------------------|
A|--------------------------------------------------|
D|--0---0-0-----4---4-4-----8---8-8--8--7---7-7--7--|

G|--------------------------------------------------|
D|--------------------------------------------------|
A|--------------------------------------------------|
D|--0---0-0-----4---4-4-----2---2-2-----7---7-7--7--|

G|--------------------------------------------------|
D|--------------------------------------------------|
A|--------------------------------------------------|
D|--0---0-2--2--7---7-7-----0---0-2--2--7---7-7-----|

In the rearview

Mirror, I saw the setting sun on your neck

And felt the taste of you bubble

Up inside me, but with everybody

Watching us, our every move, we do have reputations

We keep it secret, won't let them have it

[Refrão]

[Tab - Refrão]

G|--------------------------------------------------|
D|--------------------------------------------------|
A|--------------------------------------------------|
D|--7---7-7-----7---7-7-----7---7-7-----2---2-0--0--|

G|--------------------------------------------------|
D|--------------------------------------------------|
A|--------------------------------------------------|
D|--4---4-4--4--8---8-8--8--7---7-7--7--2---2-2--2--|

G|--------------------------------------------------|
D|--------------------------------------------------|
A|--------------------------------------------------|
D|--0---0-0--0--4---4-4--4--8---8-8--8--7---7-7--7--|

G|--------------------------------------------------|
D|--------------------------------------------------|
A|--------------------------------------------------|
D|--0---0-0--0--4---4-4--4--2---2-2--2--7---7-7--7--|

G|--------------------------------------------------|
D|--------------------------------------------------|
A|--------------------------------------------------|
D|--0---0-2--2--7---7-7-----0---0-2--2--7---7-7-----|

So come inside and

Be with me, alone with me, alone with me, alone

If you would let me give you pinky promise kisses

And I wouldn't have to scream your name

Atop of every roof in the city of my heart

If I could see you, once more to see you

[Refrão]

G|--------------------------------------------------|
D|--------------------------------------------------|
A|--------------------------------------------------|
D|--7---7-7-----7---7-7-----7---7-7-----2-----0-----|

G|--------------------------------------------------|
D|--------------------------------------------------|
A|--------------------------------------------------|
D|--4-----------8-----------7-----------2-----------|

G|--------------------------------------------------|
D|--------------------------------------------------|
A|--------------------------------------------------|
D|--0-----------4-----------8---8-8--8--7---7-7--7--|

G|--------------------------------------------------|
D|--------------------------------------------------|
A|--------------------------------------------------|
D|--0---0-0--0--4---4-4--4--2---2-2--2--7---7-7--7--|

G|--------------------------------------------------|
D|--------------------------------------------------|
A|--------------------------------------------------|
D|--0---0-2--2--7---7-7-----0---0-2--2--7---7-7-----|

G|--------------------------------------------------|
D|--------------------------------------------------|
A|--------------------------------------------------|
D|--0-----2-----7-----------0-----2-----7---7-7-----|

Come inside and

Be with me, alone with me, alone with me, alone

If you would let me give you pinky promise kisses

And I wouldn't have to scream your name

Atop of every roof in the city of my heart

If I could see you, once more to see you

If I could see you, once more to see you

[Final]

G|--------------------------------------------------|
D|--------------------------------------------------|
A|--------------------------------------------------|
D|--7---7-7-----7---7-7-----7---7-7-----7-----------|
00:00 / 00:00
Outros vídeos desta música
Repetir
Outros vídeos desta música
Composição de Mitski
Colaboração e revisão:
  • Elena
268 exibições

0 comentários

Ver todos os comentários

Conseguiu tocar?

0 Tocaram 0 Ainda não

Grave um vídeo tocando Once More To See You e nos envie!

Entre para oCifra Club PRO

Tenha acesso a benefícios exclusivos no App e no Site

  • Chega de anúncios

  • Prioridade de compra em lançamentos

  • Mais recursos no app do Afinador

  • Atendimento Prioritário

  • Descontos nos produtos Cifra Club

  • Ajude a produzir mais conteúdo

00:00 / 00:00

Cifra Club Pro

Aproveite o Cifra Club com benefícios exclusivos e sem anúncios
Cifra Club Pro
Aproveite o Cifra Club com benefícios exclusivos e sem anúncios
OK